  0
SECTION
  2
HEADER
  9
$ACADVER
  1
AC1015
  9
$ACADMAINTVER
 70
     6
  9
$DWGCODEPAGE
  3
ANSI_1254
  9
$INSBASE
 10
0.0
 20
0.0
 30
0.0
  9
$EXTMIN
 10
0.0
 20
0.0
 30
0.0
  9
$EXTMAX
 10
279.4
 20
215.9
 30
0.0
  9
$LIMMIN
 10
0.0
 20
0.0
  9
$LIMMAX
 10
279.4
 20
215.9
  9
$ORTHOMODE
 70
     0
  9
$REGENMODE
 70
     1
  9
$FILLMODE
 70
     1
  9
$QTEXTMODE
 70
     0
  9
$MIRRTEXT
 70
     1
  9
$LTSCALE
 40
1.0
  9
$ATTMODE
 70
     1
  9
$TEXTSIZE
 40
3.5
  9
$TRACEWID
 40
1.0
  9
$TEXTSTYLE
  7
Standard
  9
$CLAYER
  8
0
  9
$CELTYPE
  6
ByLayer
  9
$CECOLOR
 62
   256
  9
$CELTSCALE
 40
1.0
  9
$DISPSILH
 70
     0
  9
$DIMSCALE
 40
1.0
  9
$DIMASZ
 40
3.5
  9
$DIMEXO
 40
1.0
  9
$DIMDLI
 40
3.75
  9
$DIMRND
 40
0.0
  9
$DIMDLE
 40
0.0
  9
$DIMEXE
 40
1.0
  9
$DIMTP
 40
0.0
  9
$DIMTM
 40
0.0
  9
$DIMTXT
 40
3.5
  9
$DIMCEN
 40
2.5
  9
$DIMTSZ
 40
0.0
  9
$DIMTOL
 70
     0
  9
$DIMLIM
 70
     0
  9
$DIMTIH
 70
     1
  9
$DIMTOH
 70
     1
  9
$DIMSE1
 70
     0
  9
$DIMSE2
 70
     0
  9
$DIMTAD
 70
     1
  9
$DIMZIN
 70
     0
  9
$DIMBLK
  1

  9
$DIMASO
 70
     1
  9
$DIMSHO
 70
     1
  9
$DIMPOST
  1

  9
$DIMAPOST
  1

  9
$DIMALT
 70
     0
  9
$DIMALTD
 70
     3
  9
$DIMALTF
 40
0.0393700787
  9
$DIMLFAC
 40
1.0
  9
$DIMTOFL
 70
     1
  9
$DIMTVP
 40
0.0
  9
$DIMTIX
 70
     0
  9
$DIMSOXD
 70
     0
  9
$DIMSAH
 70
     0
  9
$DIMBLK1
  1

  9
$DIMBLK2
  1

  9
$DIMSTYLE
  2
ISO-25
  9
$DIMCLRD
 70
     0
  9
$DIMCLRE
 70
     0
  9
$DIMCLRT
 70
     0
  9
$DIMTFAC
 40
1.0
  9
$DIMGAP
 40
1.524
  9
$DIMJUST
 70
     0
  9
$DIMSD1
 70
     0
  9
$DIMSD2
 70
     0
  9
$DIMTOLJ
 70
     0
  9
$DIMTZIN
 70
     0
  9
$DIMALTZ
 70
     0
  9
$DIMALTTZ
 70
     0
  9
$DIMUPT
 70
     0
  9
$DIMDEC
 70
     2
  9
$DIMTDEC
 70
     2
  9
$DIMALTU
 70
     2
  9
$DIMALTTD
 70
     3
  9
$DIMTXSTY
  7
Standard
  9
$DIMAUNIT
 70
     0
  9
$DIMADEC
 70
     2
  9
$DIMALTRND
 40
0.0
  9
$DIMAZIN
 70
     0
  9
$DIMDSEP
 70
    44
  9
$DIMATFIT
 70
     3
  9
$DIMFRAC
 70
     0
  9
$DIMLDRBLK
  1

  9
$DIMLUNIT
 70
     2
  9
$DIMLWD
 70
    -2
  9
$DIMLWE
 70
    -2
  9
$DIMTMOVE
 70
     0
  9
$LUNITS
 70
     2
  9
$LUPREC
 70
     2
  9
$SKETCHINC
 40
1.0
  9
$FILLETRAD
 40
10.0
  9
$AUNITS
 70
     0
  9
$AUPREC
 70
     2
  9
$MENU
  1
.
  9
$ELEVATION
 40
0.0
  9
$PELEVATION
 40
0.0
  9
$THICKNESS
 40
0.0
  9
$LIMCHECK
 70
     0
  9
$CHAMFERA
 40
0.0
  9
$CHAMFERB
 40
0.0
  9
$CHAMFERC
 40
0.0
  9
$CHAMFERD
 40
0.0
  9
$SKPOLY
 70
     0
  9
$TDCREATE
 40
2459741.591087488
  9
$TDUCREATE
 40
2459741.466087488
  9
$TDUPDATE
 40
2459741.591090891
  9
$TDUUPDATE
 40
2459741.466090891
  9
$TDINDWG
 40
0.0000000116
  9
$TDUSRTIMER
 40
0.0000000116
  9
$USRTIMER
 70
     1
  9
$ANGBASE
 50
0.0
  9
$ANGDIR
 70
     0
  9
$PDMODE
 70
     0
  9
$PDSIZE
 40
-1.0
  9
$PLINEWID
 40
0.0
  9
$SPLFRAME
 70
     0
  9
$SPLINETYPE
 70
     6
  9
$SPLINESEGS
 70
     8
  9
$HANDSEED
  5
254
  9
$SURFTAB1
 70
     6
  9
$SURFTAB2
 70
     6
  9
$SURFTYPE
 70
     6
  9
$SURFU
 70
     6
  9
$SURFV
 70
     6
  9
$UCSBASE
  2

  9
$UCSNAME
  2

  9
$UCSORG
 10
0.0
 20
0.0
 30
0.0
  9
$UCSXDIR
 10
1.0
 20
0.0
 30
0.0
  9
$UCSYDIR
 10
0.0
 20
1.0
 30
0.0
  9
$UCSORTHOREF
  2

  9
$UCSORTHOVIEW
 70
     0
  9
$UCSORGTOP
 10
0.0
 20
0.0
 30
0.0
  9
$UCSORGBOTTOM
 10
0.0
 20
0.0
 30
0.0
  9
$UCSORGLEFT
 10
0.0
 20
0.0
 30
0.0
  9
$UCSORGRIGHT
 10
0.0
 20
0.0
 30
0.0
  9
$UCSORGFRONT
 10
0.0
 20
0.0
 30
0.0
  9
$UCSORGBACK
 10
0.0
 20
0.0
 30
0.0
  9
$PUCSBASE
  2

  9
$PUCSNAME
  2

  9
$PUCSORG
 10
0.0
 20
0.0
 30
0.0
  9
$PUCSXDIR
 10
1.0
 20
0.0
 30
0.0
  9
$PUCSYDIR
 10
0.0
 20
1.0
 30
0.0
  9
$PUCSORTHOREF
  2

  9
$PUCSORTHOVIEW
 70
     0
  9
$PUCSORGTOP
 10
0.0
 20
0.0
 30
0.0
  9
$PUCSORGBOTTOM
 10
0.0
 20
0.0
 30
0.0
  9
$PUCSORGLEFT
 10
0.0
 20
0.0
 30
0.0
  9
$PUCSORGRIGHT
 10
0.0
 20
0.0
 30
0.0
  9
$PUCSORGFRONT
 10
0.0
 20
0.0
 30
0.0
  9
$PUCSORGBACK
 10
0.0
 20
0.0
 30
0.0
  9
$USERI1
 70
     0
  9
$USERI2
 70
     0
  9
$USERI3
 70
     0
  9
$USERI4
 70
     0
  9
$USERI5
 70
     0
  9
$USERR1
 40
0.0
  9
$USERR2
 40
0.0
  9
$USERR3
 40
0.0
  9
$USERR4
 40
0.0
  9
$USERR5
 40
0.0
  9
$WORLDVIEW
 70
     1
  9
$SHADEDGE
 70
     3
  9
$SHADEDIF
 70
    70
  9
$TILEMODE
 70
     1
  9
$MAXACTVP
 70
    64
  9
$PINSBASE
 10
0.0
 20
0.0
 30
0.0
  9
$PLIMCHECK
 70
     0
  9
$PEXTMIN
 10
1.0000000000E+20
 20
1.0000000000E+20
 30
1.0000000000E+20
  9
$PEXTMAX
 10
-1.0000000000E+20
 20
-1.0000000000E+20
 30
-1.0000000000E+20
  9
$PLIMMIN
 10
0.0
 20
0.0
  9
$PLIMMAX
 10
420.0
 20
297.0
  9
$UNITMODE
 70
     0
  9
$VISRETAIN
 70
     1
  9
$PLINEGEN
 70
     0
  9
$PSLTSCALE
 70
     1
  9
$TREEDEPTH
 70
  3020
  9
$CMLSTYLE
  2
Standard
  9
$CMLJUST
 70
     0
  9
$CMLSCALE
 40
20.0
  9
$PROXYGRAPHICS
 70
     1
  9
$MEASUREMENT
 70
     1
  9
$CELWEIGHT
370
    -1
  9
$ENDCAPS
280
     0
  9
$JOINSTYLE
280
     0
  9
$LWDISPLAY
290
     1
  9
$INSUNITS
 70
     4
  9
$HYPERLINKBASE
  1

  9
$STYLESHEET
  1

  9
$XEDIT
290
     1
  9
$CEPSNTYPE
380
     0
  9
$PSTYLEMODE
290
     1
  9
$FINGERPRINTGUID
  2
{12b2282a-72b2-4022-917f-0b69caf1549b}
  9
$VERSIONGUID
  2
{FAEB1C32-E019-11D5-929B-00C0DF256EC4}
  9
$EXTNAMES
290
     1
  9
$PSVPSCALE
 40
0.0
  9
$OLESTARTUP
290
     0
  0
ENDSEC
  0
SECTION
  2
CLASSES
  0
CLASS
  1
ACDBDICTIONARYWDFLT
  2
AcDbDictionaryWithDefault
  3
ObjectDBX Classes
 90
        0
280
     0
281
     0
  0
CLASS
  1
VISUALSTYLE
  2
AcDbVisualStyle
  3
ObjectDBX Classes
 90
     4095
280
     0
281
     0
  0
CLASS
  1
MATERIAL
  2
AcDbMaterial
  3
ObjectDBX Classes
 90
     1153
280
     0
281
     0
  0
CLASS
  1
SCALE
  2
AcDbScale
  3
ObjectDBX Classes
 90
     1153
280
     0
281
     0
  0
CLASS
  1
TABLESTYLE
  2
AcDbTableStyle
  3
ObjectDBX Classes
 90
     4095
280
     0
281
     0
  0
CLASS
  1
MLEADERSTYLE
  2
AcDbMLeaderStyle
  3
ACDB_MLEADERSTYLE_CLASS
 90
     4095
280
     0
281
     0
  0
CLASS
  1
SUN
  2
AcDbSun
  3
SCENEOE
 90
     1153
280
     0
281
     0
  0
CLASS
  1
ACDBPLACEHOLDER
  2
AcDbPlaceHolder
  3
ObjectDBX Classes
 90
        0
280
     0
281
     0
  0
CLASS
  1
LAYOUT
  2
AcDbLayout
  3
ObjectDBX Classes
 90
        0
280
     0
281
     0
  0
ENDSEC
  0
SECTION
  2
TABLES
  0
TABLE
  2
VPORT
  5
8
330
0
100
AcDbSymbolTable
 70
     1
  0
VPORT
  5
29
330
8
100
AcDbSymbolTableRecord
100
AcDbViewportTableRecord
  2
*Active
 70
     0
 10
0.0
 20
0.0
 11
1.0
 21
1.0
 12
139.7
 22
107.95
 13
0.0
 23
0.0
 14
10.0
 24
10.0
 15
10.0
 25
10.0
 16
0.0
 26
0.0
 36
1.0
 17
0.0
 27
0.0
 37
0.0
 40
215.9
 41
1.2941176471
 42
50.0
 43
0.0
 44
0.0
 50
0.0
 51
0.0
 71
     0
 72
  2000
 73
     1
 74
     3
 75
     0
 76
     0
 77
     0
 78
     0
281
     0
 65
     1
110
0.0
120
0.0
130
0.0
111
1.0
121
0.0
131
0.0
112
0.0
122
1.0
132
0.0
 79
     0
146
0.0
  0
ENDTAB
  0
TABLE
  2
LTYPE
  5
5
330
0
100
AcDbSymbolTable
 70
     6
  0
LTYPE
  5
14
330
5
100
AcDbSymbolTableRecord
100
AcDbLinetypeTableRecord
  2
ByBlock
 70
     0
  3

 72
    65
 73
     0
 40
0.0
  0
LTYPE
  5
15
330
5
100
AcDbSymbolTableRecord
100
AcDbLinetypeTableRecord
  2
ByLayer
 70
     0
  3

 72
    65
 73
     0
 40
0.0
  0
LTYPE
  5
16
330
5
100
AcDbSymbolTableRecord
100
AcDbLinetypeTableRecord
  2
Continuous
 70
     0
  3
Solid line
 72
    65
 73
     0
 40
0.0
  0
LTYPE
  5
6E
330
5
100
AcDbSymbolTableRecord
100
AcDbLinetypeTableRecord
  2
HIDDEN
 70
     0
  3
Hidden __ __ __ __ __ __ __ __ __ __ __ __ __ __
 72
    65
 73
     2
 40
1.905
 49
1.27
 74
     0
 49
-0.635
 74
     0
  0
LTYPE
  5
6F
330
5
100
AcDbSymbolTableRecord
100
AcDbLinetypeTableRecord
  2
PHANTOM
 70
     0
  3
Phantom ______  __  __  ______  __  __  ______
 72
    65
 73
     6
 40
12.7
 49
6.35
 74
     0
 49
-1.27
 74
     0
 49
1.27
 74
     0
 49
-1.27
 74
     0
 49
1.27
 74
     0
 49
-1.27
 74
     0
  0
LTYPE
  5
70
330
5
100
AcDbSymbolTableRecord
100
AcDbLinetypeTableRecord
  2
CENTER
 70
     0
  3
Center ____ _ ____ _ ____ _ ____ _ ____ _ ____
 72
    65
 73
     4
 40
10.16
 49
6.35
 74
     0
 49
-1.27
 74
     0
 49
1.27
 74
     0
 49
-1.27
 74
     0
  0
LTYPE
  5
71
330
5
100
AcDbSymbolTableRecord
100
AcDbLinetypeTableRecord
  2
CENTERX2
 70
     0
  3
Center (2x) ________  __  ________  __  _____
 72
    65
 73
     4
 40
20.32
 49
12.7
 74
     0
 49
-2.54
 74
     0
 49
2.54
 74
     0
 49
-2.54
 74
     0
  0
LTYPE
  5
72
330
5
100
AcDbSymbolTableRecord
100
AcDbLinetypeTableRecord
  2
DOT2
 70
     0
  3
Dot (.5x) ........................................
 72
    65
 73
     2
 40
0.635
 49
0.0
 74
     0
 49
-0.635
 74
     0
  0
ENDTAB
  0
TABLE
  2
LAYER
  5
2
330
0
100
AcDbSymbolTable
 70
    17
  0
LAYER
  5
10
330
2
100
AcDbSymbolTableRecord
100
AcDbLayerTableRecord
  2
0
 70
     0
 62
     7
  6
Continuous
370
    -3
390
F
  0
LAYER
  5
73
330
2
100
AcDbSymbolTableRecord
100
AcDbLayerTableRecord
  2
FORMAT
 70
     0
 62
     7
  6
Continuous
370
    -3
390
F
  0
LAYER
  5
74
330
2
100
AcDbSymbolTableRecord
100
AcDbLayerTableRecord
  2
YARDIMCI_GEOMETRI
 70
     0
 62
    -6
  6
Continuous
290
     0
370
    -3
390
F
  0
LAYER
  5
75
330
2
100
AcDbSymbolTableRecord
100
AcDbLayerTableRecord
  2
SAYFA_CERCEVESI
 70
     0
 62
     7
  6
Continuous
370
    25
390
F
  0
LAYER
  5
76
330
2
100
AcDbSymbolTableRecord
100
AcDbLayerTableRecord
  2
ANTET
 70
     0
 62
     7
  6
Continuous
370
    -3
390
F
  0
LAYER
  5
77
330
2
100
AcDbSymbolTableRecord
100
AcDbLayerTableRecord
  2
OLCU
 70
     0
 62
   150
  6
Continuous
370
    -3
390
F
  0
LAYER
  5
78
330
2
100
AcDbSymbolTableRecord
100
AcDbLayerTableRecord
  2
METIN
 70
     0
 62
    96
  6
Continuous
370
    -3
390
F
  0
LAYER
  5
79
330
2
100
AcDbSymbolTableRecord
100
AcDbLayerTableRecord
  2
BALON
 70
     0
 62
     5
  6
Continuous
370
    -3
390
F
  0
LAYER
  5
7A
330
2
100
AcDbSymbolTableRecord
100
AcDbLayerTableRecord
  2
VURGU
 70
     0
 62
     7
  6
Continuous
370
    -3
390
F
  0
LAYER
  5
7B
330
2
100
AcDbSymbolTableRecord
100
AcDbLayerTableRecord
  2
SILIK
 70
     0
 62
     7
  6
Continuous
370
    -3
390
F
  0
LAYER
  5
7C
330
2
100
AcDbSymbolTableRecord
100
AcDbLayerTableRecord
  2
MODEL
 70
     0
 62
     7
  6
Continuous
370
    -3
390
F
  0
LAYER
  5
7D
330
2
100
AcDbSymbolTableRecord
100
AcDbLayerTableRecord
  2
DETAYLANDıRMA
 70
     0
 62
   190
  6
Continuous
370
    -3
390
F
  0
LAYER
  5
7E
330
2
100
AcDbSymbolTableRecord
100
AcDbLayerTableRecord
  2
TOLERANS
 70
     0
 62
   230
  6
Continuous
370
    -3
390
F
  0
LAYER
  5
7F
330
2
100
AcDbSymbolTableRecord
100
AcDbLayerTableRecord
  2
MERKEZ_CIZGILERI
 70
     0
 62
    30
  6
Continuous
370
    -3
390
F
  0
LAYER
  5
80
330
2
100
AcDbSymbolTableRecord
100
AcDbLayerTableRecord
  2
KESIT-DETAY_CIZGILERI
 70
     0
 62
     7
  6
Continuous
370
    -3
390
F
  0
LAYER
  5
81
330
2
100
AcDbSymbolTableRecord
100
AcDbLayerTableRecord
  2
\U+041E\U+0421\U+0415\U+0412\U+042B\U+0415
 70
     0
 62
     7
  6
Continuous
370
    -3
390
F
  0
LAYER
  5
82
330
2
100
AcDbSymbolTableRecord
100
AcDbLayerTableRecord
  2
\U+0412\U+041E\U+0414\U+042F\U+041D\U+042B\U+0415_\U+0417\U+041D\U+0410\U+041A\U+0418
 70
     0
 62
    11
  6
Continuous
370
    -3
390
F
  0
ENDTAB
  0
TABLE
  2
STYLE
  5
3
330
0
100
AcDbSymbolTable
 70
     1
  0
STYLE
  5
11
330
3
100
AcDbSymbolTableRecord
100
AcDbTextStyleTableRecord
  2
Standard
 70
     0
 40
0.0
 41
1.0
 50
0.0
 71
     0
 42
3.5
  3
txt
  4

  0
ENDTAB
  0
TABLE
  2
VIEW
  5
6
330
0
100
AcDbSymbolTable
 70
     0
  0
ENDTAB
  0
TABLE
  2
UCS
  5
7
330
0
100
AcDbSymbolTable
 70
     0
  0
ENDTAB
  0
TABLE
  2
APPID
  5
9
330
0
100
AcDbSymbolTable
 70
     1
  0
APPID
  5
12
330
9
100
AcDbSymbolTableRecord
100
AcDbRegAppTableRecord
  2
ACAD
 70
     0
  0
ENDTAB
  0
TABLE
  2
DIMSTYLE
  5
A
330
0
100
AcDbSymbolTable
 70
     1
100
AcDbDimStyleTable
  0
DIMSTYLE
105
27
330
A
100
AcDbSymbolTableRecord
100
AcDbDimStyleTableRecord
  2
ISO-25
 70
     0
 41
2.5
 42
0.625
 43
3.75
 44
1.25
 73
     0
 74
     0
 77
     1
 78
     8
140
2.5
141
2.5
143
0.0393700787
147
0.625
171
     3
172
     1
178
     0
271
     2
272
     2
274
     3
278
    44
283
     0
284
     8
340
11
  0
ENDTAB
  0
TABLE
  2
BLOCK_RECORD
  5
1
330
0
100
AcDbSymbolTable
 70
    22
  0
BLOCK_RECORD
  5
1F
330
1
100
AcDbSymbolTableRecord
100
AcDbBlockTableRecord
  2
*Model_Space
340
22
  0
BLOCK_RECORD
  5
1B
330
1
100
AcDbSymbolTableRecord
100
AcDbBlockTableRecord
  2
*Paper_Space
340
1E
  0
BLOCK_RECORD
  5
23
330
1
100
AcDbSymbolTableRecord
100
AcDbBlockTableRecord
  2
*Paper_Space0
340
26
  0
BLOCK_RECORD
  5
AF
330
1
100
AcDbSymbolTableRecord
100
AcDbBlockTableRecord
  2
SW_CENTERMARKSYMBOL_0
340
0
102
{BLKREFS
331
BA
102
}
  0
BLOCK_RECORD
  5
BB
330
1
100
AcDbSymbolTableRecord
100
AcDbBlockTableRecord
  2
SW_CENTERMARKSYMBOL_1
340
0
102
{BLKREFS
331
C6
102
}
  0
BLOCK_RECORD
  5
C7
330
1
100
AcDbSymbolTableRecord
100
AcDbBlockTableRecord
  2
SW_CENTERMARKSYMBOL_2
340
0
102
{BLKREFS
331
D2
102
}
  0
BLOCK_RECORD
  5
D3
330
1
100
AcDbSymbolTableRecord
100
AcDbBlockTableRecord
  2
SW_CENTERMARKSYMBOL_3
340
0
102
{BLKREFS
331
DE
102
}
  0
BLOCK_RECORD
  5
DF
330
1
100
AcDbSymbolTableRecord
100
AcDbBlockTableRecord
  2
SW_CENTERMARKSYMBOL_4
340
0
102
{BLKREFS
331
EA
102
}
  0
BLOCK_RECORD
  5
EB
330
1
100
AcDbSymbolTableRecord
100
AcDbBlockTableRecord
  2
SW_CENTERMARKSYMBOL_5
340
0
102
{BLKREFS
331
F6
102
}
  0
BLOCK_RECORD
  5
F7
330
1
100
AcDbSymbolTableRecord
100
AcDbBlockTableRecord
  2
SW_CENTERMARKSYMBOL_6
340
0
102
{BLKREFS
331
102
102
}
  0
BLOCK_RECORD
  5
103
330
1
100
AcDbSymbolTableRecord
100
AcDbBlockTableRecord
  2
SW_CENTERMARKSYMBOL_7
340
0
102
{BLKREFS
331
10E
102
}
  0
BLOCK_RECORD
  5
10F
330
1
100
AcDbSymbolTableRecord
100
AcDbBlockTableRecord
  2
SW_CENTERMARKSYMBOL_8
340
0
102
{BLKREFS
331
11A
102
}
  0
BLOCK_RECORD
  5
11B
330
1
100
AcDbSymbolTableRecord
100
AcDbBlockTableRecord
  2
SW_CENTERMARKSYMBOL_9
340
0
102
{BLKREFS
331
126
102
}
  0
BLOCK_RECORD
  5
127
330
1
100
AcDbSymbolTableRecord
100
AcDbBlockTableRecord
  2
SW_CENTERMARKSYMBOL_10
340
0
102
{BLKREFS
331
132
102
}
  0
BLOCK_RECORD
  5
133
330
1
100
AcDbSymbolTableRecord
100
AcDbBlockTableRecord
  2
SW_CENTERMARKSYMBOL_11
340
0
102
{BLKREFS
331
13E
102
}
  0
BLOCK_RECORD
  5
13F
330
1
100
AcDbSymbolTableRecord
100
AcDbBlockTableRecord
  2
SW_CENTERMARKSYMBOL_12
340
0
102
{BLKREFS
331
14A
102
}
  0
BLOCK_RECORD
  5
14B
330
1
100
AcDbSymbolTableRecord
100
AcDbBlockTableRecord
  2
SW_CENTERMARKSYMBOL_13
340
0
102
{BLKREFS
331
156
102
}
  0
BLOCK_RECORD
  5
157
330
1
100
AcDbSymbolTableRecord
100
AcDbBlockTableRecord
  2
SW_CENTERMARKSYMBOL_14
340
0
102
{BLKREFS
331
162
102
}
  0
BLOCK_RECORD
  5
163
330
1
100
AcDbSymbolTableRecord
100
AcDbBlockTableRecord
  2
SW_CENTERMARKSYMBOL_15
340
0
102
{BLKREFS
331
16E
102
}
  0
BLOCK_RECORD
  5
16F
330
1
100
AcDbSymbolTableRecord
100
AcDbBlockTableRecord
  2
SW_CENTERMARKSYMBOL_16
340
0
102
{BLKREFS
331
17A
102
}
  0
BLOCK_RECORD
  5
17B
330
1
100
AcDbSymbolTableRecord
100
AcDbBlockTableRecord
  2
SW_CENTERMARKSYMBOL_17
340
0
102
{BLKREFS
331
186
102
}
  0
BLOCK_RECORD
  5
187
330
1
100
AcDbSymbolTableRecord
100
AcDbBlockTableRecord
  2
SW_CENTERMARKSYMBOL_18
340
0
102
{BLKREFS
331
192
102
}
  0
BLOCK_RECORD
  5
193
330
1
100
AcDbSymbolTableRecord
100
AcDbBlockTableRecord
  2
SW_CENTERMARKSYMBOL_19
340
0
102
{BLKREFS
331
19E
102
}
  0
BLOCK_RECORD
  5
19F
330
1
100
AcDbSymbolTableRecord
100
AcDbBlockTableRecord
  2
SW_CENTERMARKSYMBOL_20
340
0
102
{BLKREFS
331
1AA
102
}
  0
ENDTAB
  0
ENDSEC
  0
SECTION
  2
BLOCKS
  0
BLOCK
  5
20
330
1F
100
AcDbEntity
  8
0
100
AcDbBlockBegin
  2
*Model_Space
 70
     0
 10
0.0
 20
0.0
 30
0.0
  3
*Model_Space
  1

  0
ENDBLK
  5
21
330
1F
100
AcDbEntity
  8
0
100
AcDbBlockEnd
  0
BLOCK
  5
1C
330
1B
100
AcDbEntity
 67
     1
  8
0
100
AcDbBlockBegin
  2
*Paper_Space
 70
     0
 10
0.0
 20
0.0
 30
0.0
  3
*Paper_Space
  1

  0
ENDBLK
  5
1D
330
1B
100
AcDbEntity
 67
     1
  8
0
100
AcDbBlockEnd
  0
BLOCK
  5
24
330
23
100
AcDbEntity
  8
0
100
AcDbBlockBegin
  2
*Paper_Space0
 70
     0
 10
0.0
 20
0.0
 30
0.0
  3
*Paper_Space0
  1

  0
ENDBLK
  5
25
330
23
100
AcDbEntity
  8
0
100
AcDbBlockEnd
  0
BLOCK
  5
B0
330
AF
100
AcDbEntity
  8
0
100
AcDbBlockBegin
  2
SW_CENTERMARKSYMBOL_0
 70
     0
 10
0.0
 20
0.0
 30
0.0
  3
SW_CENTERMARKSYMBOL_0
  1

  0
LINE
  5
B2
330
AF
100
AcDbEntity
  8
FORMAT
 62
     0
100
AcDbLine
 10
0.0
 20
0.0
 30
0.0
 11
0.0
 21
2.5
 31
0.0
  0
LINE
  5
B3
330
AF
100
AcDbEntity
  8
FORMAT
 62
     0
100
AcDbLine
 10
0.0
 20
0.0
 30
0.0
 11
-2.5
 21
0.0
 31
0.0
  0
LINE
  5
B4
330
AF
100
AcDbEntity
  8
FORMAT
 62
     0
100
AcDbLine
 10
0.0
 20
0.0
 30
0.0
 11
0.0
 21
-2.5
 31
0.0
  0
LINE
  5
B5
330
AF
100
AcDbEntity
  8
FORMAT
 62
     0
100
AcDbLine
 10
0.0
 20
0.0
 30
0.0
 11
2.5
 21
0.0
 31
0.0
  0
LINE
  5
B6
330
AF
100
AcDbEntity
  8
FORMAT
 62
     0
100
AcDbLine
 10
0.0
 20
5.0
 30
0.0
 11
0.0
 21
346.5
 31
0.0
  0
LINE
  5
B7
330
AF
100
AcDbEntity
  8
FORMAT
 62
     0
100
AcDbLine
 10
-5.0
 20
0.0
 30
0.0
 11
-346.5
 21
0.0
 31
0.0
  0
LINE
  5
B8
330
AF
100
AcDbEntity
  8
FORMAT
 62
     0
100
AcDbLine
 10
0.0
 20
-5.0
 30
0.0
 11
0.0
 21
-346.5
 31
0.0
  0
LINE
  5
B9
330
AF
100
AcDbEntity
  8
FORMAT
 62
     0
100
AcDbLine
 10
5.0
 20
0.0
 30
0.0
 11
346.5
 21
0.0
 31
0.0
  0
ENDBLK
  5
B1
330
AF
100
AcDbEntity
  8
0
100
AcDbBlockEnd
  0
BLOCK
  5
BC
330
BB
100
AcDbEntity
  8
0
100
AcDbBlockBegin
  2
SW_CENTERMARKSYMBOL_1
 70
     0
 10
0.0
 20
0.0
 30
0.0
  3
SW_CENTERMARKSYMBOL_1
  1

  0
LINE
  5
BE
330
BB
100
AcDbEntity
  8
FORMAT
 62
     0
100
AcDbLine
 10
0.0
 20
0.0
 30
0.0
 11
0.0
 21
2.5
 31
0.0
  0
LINE
  5
BF
330
BB
100
AcDbEntity
  8
FORMAT
 62
     0
100
AcDbLine
 10
0.0
 20
0.0
 30
0.0
 11
-2.5
 21
0.0
 31
0.0
  0
LINE
  5
C0
330
BB
100
AcDbEntity
  8
FORMAT
 62
     0
100
AcDbLine
 10
0.0
 20
0.0
 30
0.0
 11
0.0
 21
-2.5
 31
0.0
  0
LINE
  5
C1
330
BB
100
AcDbEntity
  8
FORMAT
 62
     0
100
AcDbLine
 10
0.0
 20
0.0
 30
0.0
 11
2.5
 21
0.0
 31
0.0
  0
LINE
  5
C2
330
BB
100
AcDbEntity
  8
FORMAT
 62
     0
100
AcDbLine
 10
0.0
 20
5.0
 30
0.0
 11
0.0
 21
15.5
 31
0.0
  0
LINE
  5
C3
330
BB
100
AcDbEntity
  8
FORMAT
 62
     0
100
AcDbLine
 10
-5.0
 20
0.0
 30
0.0
 11
-15.5
 21
0.0
 31
0.0
  0
LINE
  5
C4
330
BB
100
AcDbEntity
  8
FORMAT
 62
     0
100
AcDbLine
 10
0.0
 20
-5.0
 30
0.0
 11
0.0
 21
-15.5
 31
0.0
  0
LINE
  5
C5
330
BB
100
AcDbEntity
  8
FORMAT
 62
     0
100
AcDbLine
 10
5.0
 20
0.0
 30
0.0
 11
15.5
 21
0.0
 31
0.0
  0
ENDBLK
  5
BD
330
BB
100
AcDbEntity
  8
0
100
AcDbBlockEnd
  0
BLOCK
  5
C8
330
C7
100
AcDbEntity
  8
0
100
AcDbBlockBegin
  2
SW_CENTERMARKSYMBOL_2
 70
     0
 10
0.0
 20
0.0
 30
0.0
  3
SW_CENTERMARKSYMBOL_2
  1

  0
LINE
  5
CA
330
C7
100
AcDbEntity
  8
FORMAT
 62
     0
100
AcDbLine
 10
0.0
 20
0.0
 30
0.0
 11
0.0
 21
2.5
 31
0.0
  0
LINE
  5
CB
330
C7
100
AcDbEntity
  8
FORMAT
 62
     0
100
AcDbLine
 10
0.0
 20
0.0
 30
0.0
 11
-2.5
 21
0.0
 31
0.0
  0
LINE
  5
CC
330
C7
100
AcDbEntity
  8
FORMAT
 62
     0
100
AcDbLine
 10
0.0
 20
0.0
 30
0.0
 11
0.0
 21
-2.5
 31
0.0
  0
LINE
  5
CD
330
C7
100
AcDbEntity
  8
FORMAT
 62
     0
100
AcDbLine
 10
0.0
 20
0.0
 30
0.0
 11
2.5
 21
0.0
 31
0.0
  0
LINE
  5
CE
330
C7
100
AcDbEntity
  8
FORMAT
 62
     0
100
AcDbLine
 10
0.0
 20
5.0
 30
0.0
 11
0.0
 21
15.5
 31
0.0
  0
LINE
  5
CF
330
C7
100
AcDbEntity
  8
FORMAT
 62
     0
100
AcDbLine
 10
-5.0
 20
0.0
 30
0.0
 11
-15.5
 21
0.0
 31
0.0
  0
LINE
  5
D0
330
C7
100
AcDbEntity
  8
FORMAT
 62
     0
100
AcDbLine
 10
0.0
 20
-5.0
 30
0.0
 11
0.0
 21
-15.5
 31
0.0
  0
LINE
  5
D1
330
C7
100
AcDbEntity
  8
FORMAT
 62
     0
100
AcDbLine
 10
5.0
 20
0.0
 30
0.0
 11
15.5
 21
0.0
 31
0.0
  0
ENDBLK
  5
C9
330
C7
100
AcDbEntity
  8
0
100
AcDbBlockEnd
  0
BLOCK
  5
D4
330
D3
100
AcDbEntity
  8
0
100
AcDbBlockBegin
  2
SW_CENTERMARKSYMBOL_3
 70
     0
 10
0.0
 20
0.0
 30
0.0
  3
SW_CENTERMARKSYMBOL_3
  1

  0
LINE
  5
D6
330
D3
100
AcDbEntity
  8
FORMAT
 62
     0
100
AcDbLine
 10
0.0
 20
0.0
 30
0.0
 11
0.0
 21
2.5
 31
0.0
  0
LINE
  5
D7
330
D3
100
AcDbEntity
  8
FORMAT
 62
     0
100
AcDbLine
 10
0.0
 20
0.0
 30
0.0
 11
-2.5
 21
0.0
 31
0.0
  0
LINE
  5
D8
330
D3
100
AcDbEntity
  8
FORMAT
 62
     0
100
AcDbLine
 10
0.0
 20
0.0
 30
0.0
 11
0.0
 21
-2.5
 31
0.0
  0
LINE
  5
D9
330
D3
100
AcDbEntity
  8
FORMAT
 62
     0
100
AcDbLine
 10
0.0
 20
0.0
 30
0.0
 11
2.5
 21
0.0
 31
0.0
  0
LINE
  5
DA
330
D3
100
AcDbEntity
  8
FORMAT
 62
     0
100
AcDbLine
 10
0.0
 20
5.0
 30
0.0
 11
0.0
 21
15.5
 31
0.0
  0
LINE
  5
DB
330
D3
100
AcDbEntity
  8
FORMAT
 62
     0
100
AcDbLine
 10
-5.0
 20
0.0
 30
0.0
 11
-15.5
 21
0.0
 31
0.0
  0
LINE
  5
DC
330
D3
100
AcDbEntity
  8
FORMAT
 62
     0
100
AcDbLine
 10
0.0
 20
-5.0
 30
0.0
 11
0.0
 21
-15.5
 31
0.0
  0
LINE
  5
DD
330
D3
100
AcDbEntity
  8
FORMAT
 62
     0
100
AcDbLine
 10
5.0
 20
0.0
 30
0.0
 11
15.5
 21
0.0
 31
0.0
  0
ENDBLK
  5
D5
330
D3
100
AcDbEntity
  8
0
100
AcDbBlockEnd
  0
BLOCK
  5
E0
330
DF
100
AcDbEntity
  8
0
100
AcDbBlockBegin
  2
SW_CENTERMARKSYMBOL_4
 70
     0
 10
0.0
 20
0.0
 30
0.0
  3
SW_CENTERMARKSYMBOL_4
  1

  0
LINE
  5
E2
330
DF
100
AcDbEntity
  8
FORMAT
 62
     0
100
AcDbLine
 10
0.0
 20
0.0
 30
0.0
 11
0.0
 21
2.5
 31
0.0
  0
LINE
  5
E3
330
DF
100
AcDbEntity
  8
FORMAT
 62
     0
100
AcDbLine
 10
0.0
 20
0.0
 30
0.0
 11
-2.5
 21
0.0
 31
0.0
  0
LINE
  5
E4
330
DF
100
AcDbEntity
  8
FORMAT
 62
     0
100
AcDbLine
 10
0.0
 20
0.0
 30
0.0
 11
0.0
 21
-2.5
 31
0.0
  0
LINE
  5
E5
330
DF
100
AcDbEntity
  8
FORMAT
 62
     0
100
AcDbLine
 10
0.0
 20
0.0
 30
0.0
 11
2.5
 21
0.0
 31
0.0
  0
LINE
  5
E6
330
DF
100
AcDbEntity
  8
FORMAT
 62
     0
100
AcDbLine
 10
0.0
 20
5.0
 30
0.0
 11
0.0
 21
15.5
 31
0.0
  0
LINE
  5
E7
330
DF
100
AcDbEntity
  8
FORMAT
 62
     0
100
AcDbLine
 10
-5.0
 20
0.0
 30
0.0
 11
-15.5
 21
0.0
 31
0.0
  0
LINE
  5
E8
330
DF
100
AcDbEntity
  8
FORMAT
 62
     0
100
AcDbLine
 10
0.0
 20
-5.0
 30
0.0
 11
0.0
 21
-15.5
 31
0.0
  0
LINE
  5
E9
330
DF
100
AcDbEntity
  8
FORMAT
 62
     0
100
AcDbLine
 10
5.0
 20
0.0
 30
0.0
 11
15.5
 21
0.0
 31
0.0
  0
ENDBLK
  5
E1
330
DF
100
AcDbEntity
  8
0
100
AcDbBlockEnd
  0
BLOCK
  5
EC
330
EB
100
AcDbEntity
  8
0
100
AcDbBlockBegin
  2
SW_CENTERMARKSYMBOL_5
 70
     0
 10
0.0
 20
0.0
 30
0.0
  3
SW_CENTERMARKSYMBOL_5
  1

  0
LINE
  5
EE
330
EB
100
AcDbEntity
  8
FORMAT
 62
     0
100
AcDbLine
 10
0.0
 20
0.0
 30
0.0
 11
0.0
 21
2.5
 31
0.0
  0
LINE
  5
EF
330
EB
100
AcDbEntity
  8
FORMAT
 62
     0
100
AcDbLine
 10
0.0
 20
0.0
 30
0.0
 11
-2.5
 21
0.0
 31
0.0
  0
LINE
  5
F0
330
EB
100
AcDbEntity
  8
FORMAT
 62
     0
100
AcDbLine
 10
0.0
 20
0.0
 30
0.0
 11
0.0
 21
-2.5
 31
0.0
  0
LINE
  5
F1
330
EB
100
AcDbEntity
  8
FORMAT
 62
     0
100
AcDbLine
 10
0.0
 20
0.0
 30
0.0
 11
2.5
 21
0.0
 31
0.0
  0
LINE
  5
F2
330
EB
100
AcDbEntity
  8
FORMAT
 62
     0
100
AcDbLine
 10
0.0
 20
5.0
 30
0.0
 11
0.0
 21
16.5
 31
0.0
  0
LINE
  5
F3
330
EB
100
AcDbEntity
  8
FORMAT
 62
     0
100
AcDbLine
 10
-5.0
 20
0.0
 30
0.0
 11
-16.5
 21
0.0
 31
0.0
  0
LINE
  5
F4
330
EB
100
AcDbEntity
  8
FORMAT
 62
     0
100
AcDbLine
 10
0.0
 20
-5.0
 30
0.0
 11
0.0
 21
-16.5
 31
0.0
  0
LINE
  5
F5
330
EB
100
AcDbEntity
  8
FORMAT
 62
     0
100
AcDbLine
 10
5.0
 20
0.0
 30
0.0
 11
16.5
 21
0.0
 31
0.0
  0
ENDBLK
  5
ED
330
EB
100
AcDbEntity
  8
0
100
AcDbBlockEnd
  0
BLOCK
  5
F8
330
F7
100
AcDbEntity
  8
0
100
AcDbBlockBegin
  2
SW_CENTERMARKSYMBOL_6
 70
     0
 10
0.0
 20
0.0
 30
0.0
  3
SW_CENTERMARKSYMBOL_6
  1

  0
LINE
  5
FA
330
F7
100
AcDbEntity
  8
FORMAT
 62
     0
100
AcDbLine
 10
0.0
 20
0.0
 30
0.0
 11
0.0
 21
2.5
 31
0.0
  0
LINE
  5
FB
330
F7
100
AcDbEntity
  8
FORMAT
 62
     0
100
AcDbLine
 10
0.0
 20
0.0
 30
0.0
 11
-2.5
 21
0.0
 31
0.0
  0
LINE
  5
FC
330
F7
100
AcDbEntity
  8
FORMAT
 62
     0
100
AcDbLine
 10
0.0
 20
0.0
 30
0.0
 11
0.0
 21
-2.5
 31
0.0
  0
LINE
  5
FD
330
F7
100
AcDbEntity
  8
FORMAT
 62
     0
100
AcDbLine
 10
0.0
 20
0.0
 30
0.0
 11
2.5
 21
0.0
 31
0.0
  0
LINE
  5
FE
330
F7
100
AcDbEntity
  8
FORMAT
 62
     0
100
AcDbLine
 10
0.0
 20
5.0
 30
0.0
 11
0.0
 21
16.5
 31
0.0
  0
LINE
  5
FF
330
F7
100
AcDbEntity
  8
FORMAT
 62
     0
100
AcDbLine
 10
-5.0
 20
0.0
 30
0.0
 11
-16.5
 21
0.0
 31
0.0
  0
LINE
  5
100
330
F7
100
AcDbEntity
  8
FORMAT
 62
     0
100
AcDbLine
 10
0.0
 20
-5.0
 30
0.0
 11
0.0
 21
-16.5
 31
0.0
  0
LINE
  5
101
330
F7
100
AcDbEntity
  8
FORMAT
 62
     0
100
AcDbLine
 10
5.0
 20
0.0
 30
0.0
 11
16.5
 21
0.0
 31
0.0
  0
ENDBLK
  5
F9
330
F7
100
AcDbEntity
  8
0
100
AcDbBlockEnd
  0
BLOCK
  5
104
330
103
100
AcDbEntity
  8
0
100
AcDbBlockBegin
  2
SW_CENTERMARKSYMBOL_7
 70
     0
 10
0.0
 20
0.0
 30
0.0
  3
SW_CENTERMARKSYMBOL_7
  1

  0
LINE
  5
106
330
103
100
AcDbEntity
  8
FORMAT
 62
     0
100
AcDbLine
 10
0.0
 20
0.0
 30
0.0
 11
0.0
 21
2.5
 31
0.0
  0
LINE
  5
107
330
103
100
AcDbEntity
  8
FORMAT
 62
     0
100
AcDbLine
 10
0.0
 20
0.0
 30
0.0
 11
-2.5
 21
0.0
 31
0.0
  0
LINE
  5
108
330
103
100
AcDbEntity
  8
FORMAT
 62
     0
100
AcDbLine
 10
0.0
 20
0.0
 30
0.0
 11
0.0
 21
-2.5
 31
0.0
  0
LINE
  5
109
330
103
100
AcDbEntity
  8
FORMAT
 62
     0
100
AcDbLine
 10
0.0
 20
0.0
 30
0.0
 11
2.5
 21
0.0
 31
0.0
  0
LINE
  5
10A
330
103
100
AcDbEntity
  8
FORMAT
 62
     0
100
AcDbLine
 10
0.0
 20
5.0
 30
0.0
 11
0.0
 21
16.5
 31
0.0
  0
LINE
  5
10B
330
103
100
AcDbEntity
  8
FORMAT
 62
     0
100
AcDbLine
 10
-5.0
 20
0.0
 30
0.0
 11
-16.5
 21
0.0
 31
0.0
  0
LINE
  5
10C
330
103
100
AcDbEntity
  8
FORMAT
 62
     0
100
AcDbLine
 10
0.0
 20
-5.0
 30
0.0
 11
0.0
 21
-16.5
 31
0.0
  0
LINE
  5
10D
330
103
100
AcDbEntity
  8
FORMAT
 62
     0
100
AcDbLine
 10
5.0
 20
0.0
 30
0.0
 11
16.5
 21
0.0
 31
0.0
  0
ENDBLK
  5
105
330
103
100
AcDbEntity
  8
0
100
AcDbBlockEnd
  0
BLOCK
  5
110
330
10F
100
AcDbEntity
  8
0
100
AcDbBlockBegin
  2
SW_CENTERMARKSYMBOL_8
 70
     0
 10
0.0
 20
0.0
 30
0.0
  3
SW_CENTERMARKSYMBOL_8
  1

  0
LINE
  5
112
330
10F
100
AcDbEntity
  8
FORMAT
 62
     0
100
AcDbLine
 10
0.0
 20
0.0
 30
0.0
 11
0.0
 21
2.5
 31
0.0
  0
LINE
  5
113
330
10F
100
AcDbEntity
  8
FORMAT
 62
     0
100
AcDbLine
 10
0.0
 20
0.0
 30
0.0
 11
-2.5
 21
0.0
 31
0.0
  0
LINE
  5
114
330
10F
100
AcDbEntity
  8
FORMAT
 62
     0
100
AcDbLine
 10
0.0
 20
0.0
 30
0.0
 11
0.0
 21
-2.5
 31
0.0
  0
LINE
  5
115
330
10F
100
AcDbEntity
  8
FORMAT
 62
     0
100
AcDbLine
 10
0.0
 20
0.0
 30
0.0
 11
2.5
 21
0.0
 31
0.0
  0
LINE
  5
116
330
10F
100
AcDbEntity
  8
FORMAT
 62
     0
100
AcDbLine
 10
0.0
 20
5.0
 30
0.0
 11
0.0
 21
16.5
 31
0.0
  0
LINE
  5
117
330
10F
100
AcDbEntity
  8
FORMAT
 62
     0
100
AcDbLine
 10
-5.0
 20
0.0
 30
0.0
 11
-16.5
 21
0.0
 31
0.0
  0
LINE
  5
118
330
10F
100
AcDbEntity
  8
FORMAT
 62
     0
100
AcDbLine
 10
0.0
 20
-5.0
 30
0.0
 11
0.0
 21
-16.5
 31
0.0
  0
LINE
  5
119
330
10F
100
AcDbEntity
  8
FORMAT
 62
     0
100
AcDbLine
 10
5.0
 20
0.0
 30
0.0
 11
16.5
 21
0.0
 31
0.0
  0
ENDBLK
  5
111
330
10F
100
AcDbEntity
  8
0
100
AcDbBlockEnd
  0
BLOCK
  5
11C
330
11B
100
AcDbEntity
  8
0
100
AcDbBlockBegin
  2
SW_CENTERMARKSYMBOL_9
 70
     0
 10
0.0
 20
0.0
 30
0.0
  3
SW_CENTERMARKSYMBOL_9
  1

  0
LINE
  5
11E
330
11B
100
AcDbEntity
  8
FORMAT
 62
     0
100
AcDbLine
 10
0.0
 20
0.0
 30
0.0
 11
0.0
 21
2.5
 31
0.0
  0
LINE
  5
11F
330
11B
100
AcDbEntity
  8
FORMAT
 62
     0
100
AcDbLine
 10
0.0
 20
0.0
 30
0.0
 11
-2.5
 21
0.0
 31
0.0
  0
LINE
  5
120
330
11B
100
AcDbEntity
  8
FORMAT
 62
     0
100
AcDbLine
 10
0.0
 20
0.0
 30
0.0
 11
0.0
 21
-2.5
 31
0.0
  0
LINE
  5
121
330
11B
100
AcDbEntity
  8
FORMAT
 62
     0
100
AcDbLine
 10
0.0
 20
0.0
 30
0.0
 11
2.5
 21
0.0
 31
0.0
  0
LINE
  5
122
330
11B
100
AcDbEntity
  8
FORMAT
 62
     0
100
AcDbLine
 10
0.0
 20
5.0
 30
0.0
 11
0.0
 21
16.5
 31
0.0
  0
LINE
  5
123
330
11B
100
AcDbEntity
  8
FORMAT
 62
     0
100
AcDbLine
 10
-5.0
 20
0.0
 30
0.0
 11
-16.5
 21
0.0
 31
0.0
  0
LINE
  5
124
330
11B
100
AcDbEntity
  8
FORMAT
 62
     0
100
AcDbLine
 10
0.0
 20
-5.0
 30
0.0
 11
0.0
 21
-16.5
 31
0.0
  0
LINE
  5
125
330
11B
100
AcDbEntity
  8
FORMAT
 62
     0
100
AcDbLine
 10
5.0
 20
0.0
 30
0.0
 11
16.5
 21
0.0
 31
0.0
  0
ENDBLK
  5
11D
330
11B
100
AcDbEntity
  8
0
100
AcDbBlockEnd
  0
BLOCK
  5
128
330
127
100
AcDbEntity
  8
0
100
AcDbBlockBegin
  2
SW_CENTERMARKSYMBOL_10
 70
     0
 10
0.0
 20
0.0
 30
0.0
  3
SW_CENTERMARKSYMBOL_10
  1

  0
LINE
  5
12A
330
127
100
AcDbEntity
  8
FORMAT
 62
     0
100
AcDbLine
 10
0.0
 20
0.0
 30
0.0
 11
0.0
 21
2.5
 31
0.0
  0
LINE
  5
12B
330
127
100
AcDbEntity
  8
FORMAT
 62
     0
100
AcDbLine
 10
0.0
 20
0.0
 30
0.0
 11
-2.5
 21
0.0
 31
0.0
  0
LINE
  5
12C
330
127
100
AcDbEntity
  8
FORMAT
 62
     0
100
AcDbLine
 10
0.0
 20
0.0
 30
0.0
 11
0.0
 21
-2.5
 31
0.0
  0
LINE
  5
12D
330
127
100
AcDbEntity
  8
FORMAT
 62
     0
100
AcDbLine
 10
0.0
 20
0.0
 30
0.0
 11
2.5
 21
0.0
 31
0.0
  0
LINE
  5
12E
330
127
100
AcDbEntity
  8
FORMAT
 62
     0
100
AcDbLine
 10
0.0
 20
5.0
 30
0.0
 11
0.0
 21
16.5
 31
0.0
  0
LINE
  5
12F
330
127
100
AcDbEntity
  8
FORMAT
 62
     0
100
AcDbLine
 10
-5.0
 20
0.0
 30
0.0
 11
-16.5
 21
0.0
 31
0.0
  0
LINE
  5
130
330
127
100
AcDbEntity
  8
FORMAT
 62
     0
100
AcDbLine
 10
0.0
 20
-5.0
 30
0.0
 11
0.0
 21
-16.5
 31
0.0
  0
LINE
  5
131
330
127
100
AcDbEntity
  8
FORMAT
 62
     0
100
AcDbLine
 10
5.0
 20
0.0
 30
0.0
 11
16.5
 21
0.0
 31
0.0
  0
ENDBLK
  5
129
330
127
100
AcDbEntity
  8
0
100
AcDbBlockEnd
  0
BLOCK
  5
134
330
133
100
AcDbEntity
  8
0
100
AcDbBlockBegin
  2
SW_CENTERMARKSYMBOL_11
 70
     0
 10
0.0
 20
0.0
 30
0.0
  3
SW_CENTERMARKSYMBOL_11
  1

  0
LINE
  5
136
330
133
100
AcDbEntity
  8
FORMAT
 62
     0
100
AcDbLine
 10
0.0
 20
0.0
 30
0.0
 11
0.0
 21
2.5
 31
0.0
  0
LINE
  5
137
330
133
100
AcDbEntity
  8
FORMAT
 62
     0
100
AcDbLine
 10
0.0
 20
0.0
 30
0.0
 11
-2.5
 21
0.0
 31
0.0
  0
LINE
  5
138
330
133
100
AcDbEntity
  8
FORMAT
 62
     0
100
AcDbLine
 10
0.0
 20
0.0
 30
0.0
 11
0.0
 21
-2.5
 31
0.0
  0
LINE
  5
139
330
133
100
AcDbEntity
  8
FORMAT
 62
     0
100
AcDbLine
 10
0.0
 20
0.0
 30
0.0
 11
2.5
 21
0.0
 31
0.0
  0
LINE
  5
13A
330
133
100
AcDbEntity
  8
FORMAT
 62
     0
100
AcDbLine
 10
0.0
 20
5.0
 30
0.0
 11
0.0
 21
16.5
 31
0.0
  0
LINE
  5
13B
330
133
100
AcDbEntity
  8
FORMAT
 62
     0
100
AcDbLine
 10
-5.0
 20
0.0
 30
0.0
 11
-16.5
 21
0.0
 31
0.0
  0
LINE
  5
13C
330
133
100
AcDbEntity
  8
FORMAT
 62
     0
100
AcDbLine
 10
0.0
 20
-5.0
 30
0.0
 11
0.0
 21
-16.5
 31
0.0
  0
LINE
  5
13D
330
133
100
AcDbEntity
  8
FORMAT
 62
     0
100
AcDbLine
 10
5.0
 20
0.0
 30
0.0
 11
16.5
 21
0.0
 31
0.0
  0
ENDBLK
  5
135
330
133
100
AcDbEntity
  8
0
100
AcDbBlockEnd
  0
BLOCK
  5
140
330
13F
100
AcDbEntity
  8
0
100
AcDbBlockBegin
  2
SW_CENTERMARKSYMBOL_12
 70
     0
 10
0.0
 20
0.0
 30
0.0
  3
SW_CENTERMARKSYMBOL_12
  1

  0
LINE
  5
142
330
13F
100
AcDbEntity
  8
FORMAT
 62
     0
100
AcDbLine
 10
0.0
 20
0.0
 30
0.0
 11
0.0
 21
2.5
 31
0.0
  0
LINE
  5
143
330
13F
100
AcDbEntity
  8
FORMAT
 62
     0
100
AcDbLine
 10
0.0
 20
0.0
 30
0.0
 11
-2.5
 21
0.0
 31
0.0
  0
LINE
  5
144
330
13F
100
AcDbEntity
  8
FORMAT
 62
     0
100
AcDbLine
 10
0.0
 20
0.0
 30
0.0
 11
0.0
 21
-2.5
 31
0.0
  0
LINE
  5
145
330
13F
100
AcDbEntity
  8
FORMAT
 62
     0
100
AcDbLine
 10
0.0
 20
0.0
 30
0.0
 11
2.5
 21
0.0
 31
0.0
  0
LINE
  5
146
330
13F
100
AcDbEntity
  8
FORMAT
 62
     0
100
AcDbLine
 10
0.0
 20
5.0
 30
0.0
 11
0.0
 21
16.5
 31
0.0
  0
LINE
  5
147
330
13F
100
AcDbEntity
  8
FORMAT
 62
     0
100
AcDbLine
 10
-5.0
 20
0.0
 30
0.0
 11
-16.5
 21
0.0
 31
0.0
  0
LINE
  5
148
330
13F
100
AcDbEntity
  8
FORMAT
 62
     0
100
AcDbLine
 10
0.0
 20
-5.0
 30
0.0
 11
0.0
 21
-16.5
 31
0.0
  0
LINE
  5
149
330
13F
100
AcDbEntity
  8
FORMAT
 62
     0
100
AcDbLine
 10
5.0
 20
0.0
 30
0.0
 11
16.5
 21
0.0
 31
0.0
  0
ENDBLK
  5
141
330
13F
100
AcDbEntity
  8
0
100
AcDbBlockEnd
  0
BLOCK
  5
14C
330
14B
100
AcDbEntity
  8
0
100
AcDbBlockBegin
  2
SW_CENTERMARKSYMBOL_13
 70
     0
 10
0.0
 20
0.0
 30
0.0
  3
SW_CENTERMARKSYMBOL_13
  1

  0
LINE
  5
14E
330
14B
100
AcDbEntity
  8
FORMAT
 62
     0
100
AcDbLine
 10
0.0
 20
0.0
 30
0.0
 11
0.0
 21
2.5
 31
0.0
  0
LINE
  5
14F
330
14B
100
AcDbEntity
  8
FORMAT
 62
     0
100
AcDbLine
 10
0.0
 20
0.0
 30
0.0
 11
-2.5
 21
0.0
 31
0.0
  0
LINE
  5
150
330
14B
100
AcDbEntity
  8
FORMAT
 62
     0
100
AcDbLine
 10
0.0
 20
0.0
 30
0.0
 11
0.0
 21
-2.5
 31
0.0
  0
LINE
  5
151
330
14B
100
AcDbEntity
  8
FORMAT
 62
     0
100
AcDbLine
 10
0.0
 20
0.0
 30
0.0
 11
2.5
 21
0.0
 31
0.0
  0
LINE
  5
152
330
14B
100
AcDbEntity
  8
FORMAT
 62
     0
100
AcDbLine
 10
0.0
 20
5.0
 30
0.0
 11
0.0
 21
16.5
 31
0.0
  0
LINE
  5
153
330
14B
100
AcDbEntity
  8
FORMAT
 62
     0
100
AcDbLine
 10
-5.0
 20
0.0
 30
0.0
 11
-16.5
 21
0.0
 31
0.0
  0
LINE
  5
154
330
14B
100
AcDbEntity
  8
FORMAT
 62
     0
100
AcDbLine
 10
0.0
 20
-5.0
 30
0.0
 11
0.0
 21
-16.5
 31
0.0
  0
LINE
  5
155
330
14B
100
AcDbEntity
  8
FORMAT
 62
     0
100
AcDbLine
 10
5.0
 20
0.0
 30
0.0
 11
16.5
 21
0.0
 31
0.0
  0
ENDBLK
  5
14D
330
14B
100
AcDbEntity
  8
0
100
AcDbBlockEnd
  0
BLOCK
  5
158
330
157
100
AcDbEntity
  8
0
100
AcDbBlockBegin
  2
SW_CENTERMARKSYMBOL_14
 70
     0
 10
0.0
 20
0.0
 30
0.0
  3
SW_CENTERMARKSYMBOL_14
  1

  0
LINE
  5
15A
330
157
100
AcDbEntity
  8
FORMAT
 62
     0
100
AcDbLine
 10
0.0
 20
0.0
 30
0.0
 11
0.0
 21
2.5
 31
0.0
  0
LINE
  5
15B
330
157
100
AcDbEntity
  8
FORMAT
 62
     0
100
AcDbLine
 10
0.0
 20
0.0
 30
0.0
 11
-2.5
 21
0.0
 31
0.0
  0
LINE
  5
15C
330
157
100
AcDbEntity
  8
FORMAT
 62
     0
100
AcDbLine
 10
0.0
 20
0.0
 30
0.0
 11
0.0
 21
-2.5
 31
0.0
  0
LINE
  5
15D
330
157
100
AcDbEntity
  8
FORMAT
 62
     0
100
AcDbLine
 10
0.0
 20
0.0
 30
0.0
 11
2.5
 21
0.0
 31
0.0
  0
LINE
  5
15E
330
157
100
AcDbEntity
  8
FORMAT
 62
     0
100
AcDbLine
 10
0.0
 20
5.0
 30
0.0
 11
0.0
 21
16.5
 31
0.0
  0
LINE
  5
15F
330
157
100
AcDbEntity
  8
FORMAT
 62
     0
100
AcDbLine
 10
-5.0
 20
0.0
 30
0.0
 11
-16.5
 21
0.0
 31
0.0
  0
LINE
  5
160
330
157
100
AcDbEntity
  8
FORMAT
 62
     0
100
AcDbLine
 10
0.0
 20
-5.0
 30
0.0
 11
0.0
 21
-16.5
 31
0.0
  0
LINE
  5
161
330
157
100
AcDbEntity
  8
FORMAT
 62
     0
100
AcDbLine
 10
5.0
 20
0.0
 30
0.0
 11
16.5
 21
0.0
 31
0.0
  0
ENDBLK
  5
159
330
157
100
AcDbEntity
  8
0
100
AcDbBlockEnd
  0
BLOCK
  5
164
330
163
100
AcDbEntity
  8
0
100
AcDbBlockBegin
  2
SW_CENTERMARKSYMBOL_15
 70
     0
 10
0.0
 20
0.0
 30
0.0
  3
SW_CENTERMARKSYMBOL_15
  1

  0
LINE
  5
166
330
163
100
AcDbEntity
  8
FORMAT
 62
     0
100
AcDbLine
 10
0.0
 20
0.0
 30
0.0
 11
0.0
 21
2.5
 31
0.0
  0
LINE
  5
167
330
163
100
AcDbEntity
  8
FORMAT
 62
     0
100
AcDbLine
 10
0.0
 20
0.0
 30
0.0
 11
-2.5
 21
0.0
 31
0.0
  0
LINE
  5
168
330
163
100
AcDbEntity
  8
FORMAT
 62
     0
100
AcDbLine
 10
0.0
 20
0.0
 30
0.0
 11
0.0
 21
-2.5
 31
0.0
  0
LINE
  5
169
330
163
100
AcDbEntity
  8
FORMAT
 62
     0
100
AcDbLine
 10
0.0
 20
0.0
 30
0.0
 11
2.5
 21
0.0
 31
0.0
  0
LINE
  5
16A
330
163
100
AcDbEntity
  8
FORMAT
 62
     0
100
AcDbLine
 10
0.0
 20
5.0
 30
0.0
 11
0.0
 21
16.5
 31
0.0
  0
LINE
  5
16B
330
163
100
AcDbEntity
  8
FORMAT
 62
     0
100
AcDbLine
 10
-5.0
 20
0.0
 30
0.0
 11
-16.5
 21
0.0
 31
0.0
  0
LINE
  5
16C
330
163
100
AcDbEntity
  8
FORMAT
 62
     0
100
AcDbLine
 10
0.0
 20
-5.0
 30
0.0
 11
0.0
 21
-16.5
 31
0.0
  0
LINE
  5
16D
330
163
100
AcDbEntity
  8
FORMAT
 62
     0
100
AcDbLine
 10
5.0
 20
0.0
 30
0.0
 11
16.5
 21
0.0
 31
0.0
  0
ENDBLK
  5
165
330
163
100
AcDbEntity
  8
0
100
AcDbBlockEnd
  0
BLOCK
  5
170
330
16F
100
AcDbEntity
  8
0
100
AcDbBlockBegin
  2
SW_CENTERMARKSYMBOL_16
 70
     0
 10
0.0
 20
0.0
 30
0.0
  3
SW_CENTERMARKSYMBOL_16
  1

  0
LINE
  5
172
330
16F
100
AcDbEntity
  8
FORMAT
 62
     0
100
AcDbLine
 10
0.0
 20
0.0
 30
0.0
 11
0.0
 21
2.5
 31
0.0
  0
LINE
  5
173
330
16F
100
AcDbEntity
  8
FORMAT
 62
     0
100
AcDbLine
 10
0.0
 20
0.0
 30
0.0
 11
-2.5
 21
0.0
 31
0.0
  0
LINE
  5
174
330
16F
100
AcDbEntity
  8
FORMAT
 62
     0
100
AcDbLine
 10
0.0
 20
0.0
 30
0.0
 11
0.0
 21
-2.5
 31
0.0
  0
LINE
  5
175
330
16F
100
AcDbEntity
  8
FORMAT
 62
     0
100
AcDbLine
 10
0.0
 20
0.0
 30
0.0
 11
2.5
 21
0.0
 31
0.0
  0
LINE
  5
176
330
16F
100
AcDbEntity
  8
FORMAT
 62
     0
100
AcDbLine
 10
0.0
 20
5.0
 30
0.0
 11
0.0
 21
16.5
 31
0.0
  0
LINE
  5
177
330
16F
100
AcDbEntity
  8
FORMAT
 62
     0
100
AcDbLine
 10
-5.0
 20
0.0
 30
0.0
 11
-16.5
 21
0.0
 31
0.0
  0
LINE
  5
178
330
16F
100
AcDbEntity
  8
FORMAT
 62
     0
100
AcDbLine
 10
0.0
 20
-5.0
 30
0.0
 11
0.0
 21
-16.5
 31
0.0
  0
LINE
  5
179
330
16F
100
AcDbEntity
  8
FORMAT
 62
     0
100
AcDbLine
 10
5.0
 20
0.0
 30
0.0
 11
16.5
 21
0.0
 31
0.0
  0
ENDBLK
  5
171
330
16F
100
AcDbEntity
  8
0
100
AcDbBlockEnd
  0
BLOCK
  5
17C
330
17B
100
AcDbEntity
  8
0
100
AcDbBlockBegin
  2
SW_CENTERMARKSYMBOL_17
 70
     0
 10
0.0
 20
0.0
 30
0.0
  3
SW_CENTERMARKSYMBOL_17
  1

  0
LINE
  5
17E
330
17B
100
AcDbEntity
  8
FORMAT
 62
     0
100
AcDbLine
 10
0.0
 20
0.0
 30
0.0
 11
0.0
 21
2.5
 31
0.0
  0
LINE
  5
17F
330
17B
100
AcDbEntity
  8
FORMAT
 62
     0
100
AcDbLine
 10
0.0
 20
0.0
 30
0.0
 11
-2.5
 21
0.0
 31
0.0
  0
LINE
  5
180
330
17B
100
AcDbEntity
  8
FORMAT
 62
     0
100
AcDbLine
 10
0.0
 20
0.0
 30
0.0
 11
0.0
 21
-2.5
 31
0.0
  0
LINE
  5
181
330
17B
100
AcDbEntity
  8
FORMAT
 62
     0
100
AcDbLine
 10
0.0
 20
0.0
 30
0.0
 11
2.5
 21
0.0
 31
0.0
  0
LINE
  5
182
330
17B
100
AcDbEntity
  8
FORMAT
 62
     0
100
AcDbLine
 10
0.0
 20
5.0
 30
0.0
 11
0.0
 21
16.5
 31
0.0
  0
LINE
  5
183
330
17B
100
AcDbEntity
  8
FORMAT
 62
     0
100
AcDbLine
 10
-5.0
 20
0.0
 30
0.0
 11
-16.5
 21
0.0
 31
0.0
  0
LINE
  5
184
330
17B
100
AcDbEntity
  8
FORMAT
 62
     0
100
AcDbLine
 10
0.0
 20
-5.0
 30
0.0
 11
0.0
 21
-16.5
 31
0.0
  0
LINE
  5
185
330
17B
100
AcDbEntity
  8
FORMAT
 62
     0
100
AcDbLine
 10
5.0
 20
0.0
 30
0.0
 11
16.5
 21
0.0
 31
0.0
  0
ENDBLK
  5
17D
330
17B
100
AcDbEntity
  8
0
100
AcDbBlockEnd
  0
BLOCK
  5
188
330
187
100
AcDbEntity
  8
0
100
AcDbBlockBegin
  2
SW_CENTERMARKSYMBOL_18
 70
     0
 10
0.0
 20
0.0
 30
0.0
  3
SW_CENTERMARKSYMBOL_18
  1

  0
LINE
  5
18A
330
187
100
AcDbEntity
  8
FORMAT
 62
     0
100
AcDbLine
 10
0.0
 20
0.0
 30
0.0
 11
0.0
 21
2.5
 31
0.0
  0
LINE
  5
18B
330
187
100
AcDbEntity
  8
FORMAT
 62
     0
100
AcDbLine
 10
0.0
 20
0.0
 30
0.0
 11
-2.5
 21
0.0
 31
0.0
  0
LINE
  5
18C
330
187
100
AcDbEntity
  8
FORMAT
 62
     0
100
AcDbLine
 10
0.0
 20
0.0
 30
0.0
 11
0.0
 21
-2.5
 31
0.0
  0
LINE
  5
18D
330
187
100
AcDbEntity
  8
FORMAT
 62
     0
100
AcDbLine
 10
0.0
 20
0.0
 30
0.0
 11
2.5
 21
0.0
 31
0.0
  0
LINE
  5
18E
330
187
100
AcDbEntity
  8
FORMAT
 62
     0
100
AcDbLine
 10
0.0
 20
5.0
 30
0.0
 11
0.0
 21
16.5
 31
0.0
  0
LINE
  5
18F
330
187
100
AcDbEntity
  8
FORMAT
 62
     0
100
AcDbLine
 10
-5.0
 20
0.0
 30
0.0
 11
-16.5
 21
0.0
 31
0.0
  0
LINE
  5
190
330
187
100
AcDbEntity
  8
FORMAT
 62
     0
100
AcDbLine
 10
0.0
 20
-5.0
 30
0.0
 11
0.0
 21
-16.5
 31
0.0
  0
LINE
  5
191
330
187
100
AcDbEntity
  8
FORMAT
 62
     0
100
AcDbLine
 10
5.0
 20
0.0
 30
0.0
 11
16.5
 21
0.0
 31
0.0
  0
ENDBLK
  5
189
330
187
100
AcDbEntity
  8
0
100
AcDbBlockEnd
  0
BLOCK
  5
194
330
193
100
AcDbEntity
  8
0
100
AcDbBlockBegin
  2
SW_CENTERMARKSYMBOL_19
 70
     0
 10
0.0
 20
0.0
 30
0.0
  3
SW_CENTERMARKSYMBOL_19
  1

  0
LINE
  5
196
330
193
100
AcDbEntity
  8
FORMAT
 62
     0
100
AcDbLine
 10
0.0
 20
0.0
 30
0.0
 11
0.0
 21
2.5
 31
0.0
  0
LINE
  5
197
330
193
100
AcDbEntity
  8
FORMAT
 62
     0
100
AcDbLine
 10
0.0
 20
0.0
 30
0.0
 11
-2.5
 21
0.0
 31
0.0
  0
LINE
  5
198
330
193
100
AcDbEntity
  8
FORMAT
 62
     0
100
AcDbLine
 10
0.0
 20
0.0
 30
0.0
 11
0.0
 21
-2.5
 31
0.0
  0
LINE
  5
199
330
193
100
AcDbEntity
  8
FORMAT
 62
     0
100
AcDbLine
 10
0.0
 20
0.0
 30
0.0
 11
2.5
 21
0.0
 31
0.0
  0
LINE
  5
19A
330
193
100
AcDbEntity
  8
FORMAT
 62
     0
100
AcDbLine
 10
0.0
 20
5.0
 30
0.0
 11
0.0
 21
16.5
 31
0.0
  0
LINE
  5
19B
330
193
100
AcDbEntity
  8
FORMAT
 62
     0
100
AcDbLine
 10
-5.0
 20
0.0
 30
0.0
 11
-16.5
 21
0.0
 31
0.0
  0
LINE
  5
19C
330
193
100
AcDbEntity
  8
FORMAT
 62
     0
100
AcDbLine
 10
0.0
 20
-5.0
 30
0.0
 11
0.0
 21
-16.5
 31
0.0
  0
LINE
  5
19D
330
193
100
AcDbEntity
  8
FORMAT
 62
     0
100
AcDbLine
 10
5.0
 20
0.0
 30
0.0
 11
16.5
 21
0.0
 31
0.0
  0
ENDBLK
  5
195
330
193
100
AcDbEntity
  8
0
100
AcDbBlockEnd
  0
BLOCK
  5
1A0
330
19F
100
AcDbEntity
  8
0
100
AcDbBlockBegin
  2
SW_CENTERMARKSYMBOL_20
 70
     0
 10
0.0
 20
0.0
 30
0.0
  3
SW_CENTERMARKSYMBOL_20
  1

  0
LINE
  5
1A2
330
19F
100
AcDbEntity
  8
FORMAT
 62
     0
100
AcDbLine
 10
0.0
 20
0.0
 30
0.0
 11
0.0
 21
2.5
 31
0.0
  0
LINE
  5
1A3
330
19F
100
AcDbEntity
  8
FORMAT
 62
     0
100
AcDbLine
 10
0.0
 20
0.0
 30
0.0
 11
-2.5
 21
0.0
 31
0.0
  0
LINE
  5
1A4
330
19F
100
AcDbEntity
  8
FORMAT
 62
     0
100
AcDbLine
 10
0.0
 20
0.0
 30
0.0
 11
0.0
 21
-2.5
 31
0.0
  0
LINE
  5
1A5
330
19F
100
AcDbEntity
  8
FORMAT
 62
     0
100
AcDbLine
 10
0.0
 20
0.0
 30
0.0
 11
2.5
 21
0.0
 31
0.0
  0
LINE
  5
1A6
330
19F
100
AcDbEntity
  8
FORMAT
 62
     0
100
AcDbLine
 10
0.0
 20
5.0
 30
0.0
 11
0.0
 21
16.5
 31
0.0
  0
LINE
  5
1A7
330
19F
100
AcDbEntity
  8
FORMAT
 62
     0
100
AcDbLine
 10
-5.0
 20
0.0
 30
0.0
 11
-16.5
 21
0.0
 31
0.0
  0
LINE
  5
1A8
330
19F
100
AcDbEntity
  8
FORMAT
 62
     0
100
AcDbLine
 10
0.0
 20
-5.0
 30
0.0
 11
0.0
 21
-16.5
 31
0.0
  0
LINE
  5
1A9
330
19F
100
AcDbEntity
  8
FORMAT
 62
     0
100
AcDbLine
 10
5.0
 20
0.0
 30
0.0
 11
16.5
 21
0.0
 31
0.0
  0
ENDBLK
  5
1A1
330
19F
100
AcDbEntity
  8
0
100
AcDbBlockEnd
  0
ENDSEC
  0
SECTION
  2
ENTITIES
  0
CIRCLE
  5
83
330
1F
100
AcDbEntity
  8
0
  6
Continuous
 62
     7
370
    25
100
AcDbCircle
 10
-47.1028343903
 20
366.4862641295
 30
0.0
 40
14.00000000000001
  0
CIRCLE
  5
84
330
1F
100
AcDbEntity
  8
0
  6
Continuous
 62
     7
370
    25
100
AcDbCircle
 10
-159.7169262312
 20
211.4862641294
 30
0.0
 40
14.0
  0
CIRCLE
  5
85
330
1F
100
AcDbEntity
  8
0
  6
Continuous
 62
     7
370
    25
100
AcDbCircle
 10
-159.7169262312
 20
19.8957276169
 30
0.0
 40
14.0
  0
CIRCLE
  5
86
330
1F
100
AcDbEntity
  8
0
  6
Continuous
 62
     7
370
    25
100
AcDbCircle
 10
-47.1028343903
 20
-135.1042723831
 30
0.0
 40
14.00000000000001
  0
CIRCLE
  5
87
330
1F
100
AcDbEntity
  8
0
  6
Continuous
 62
     7
370
    25
100
AcDbCircle
 10
135.1105938204
 20
-194.3090041269
 30
0.0
 40
14.0
  0
CIRCLE
  5
88
330
1F
100
AcDbEntity
  8
0
  6
Continuous
 62
     7
370
    25
100
AcDbCircle
 10
317.3240220311
 20
-135.1042723831
 30
0.0
 40
14.0
  0
CIRCLE
  5
89
330
1F
100
AcDbEntity
  8
0
  6
Continuous
 62
     7
370
    25
100
AcDbCircle
 10
429.9381138719
 20
19.8957276169
 30
0.0
 40
14.0
  0
CIRCLE
  5
8A
330
1F
100
AcDbEntity
  8
0
  6
Continuous
 62
     7
370
    25
100
AcDbCircle
 10
385.9058620767
 20
297.9044240838
 30
0.0
 40
14.00000000000006
  0
CIRCLE
  5
8B
330
1F
100
AcDbEntity
  8
0
  6
Continuous
 62
     7
370
    25
100
AcDbCircle
 10
230.9058620767
 20
410.5185159247
 30
0.0
 40
14.0
  0
CIRCLE
  5
8C
330
1F
100
AcDbEntity
  8
0
  6
Continuous
 62
     7
370
    25
100
AcDbCircle
 10
135.1105938204
 20
425.6909958732
 30
0.0
 40
14.0
  0
CIRCLE
  5
8D
330
1F
100
AcDbEntity
  8
0
  6
Continuous
 62
     7
370
    25
100
AcDbCircle
 10
135.1105938204
 20
115.6909958732
 30
0.0
 40
342.9999999999999
  0
CIRCLE
  5
8E
330
1F
100
AcDbEntity
  8
0
  6
Continuous
 62
     7
370
    25
100
AcDbCircle
 10
135.1105938204
 20
115.6909958732
 30
0.0
 40
267.5
  0
CIRCLE
  5
8F
330
1F
100
AcDbEntity
  8
0
  6
Continuous
 62
     7
370
    25
100
AcDbCircle
 10
429.9381138719
 20
211.4862641294
 30
0.0
 40
14.0
  0
CIRCLE
  5
90
330
1F
100
AcDbEntity
  8
0
  6
Continuous
 62
     7
370
    25
100
AcDbCircle
 10
317.3240220311
 20
366.4862641294
 30
0.0
 40
14.0
  0
CIRCLE
  5
91
330
1F
100
AcDbEntity
  8
0
  6
Continuous
 62
     7
370
    25
100
AcDbCircle
 10
445.1105938204
 20
115.6909958731
 30
0.0
 40
14.0
  0
CIRCLE
  5
92
330
1F
100
AcDbEntity
  8
0
  6
Continuous
 62
     7
370
    25
100
AcDbCircle
 10
385.9058620766
 20
-66.5224323375
 30
0.0
 40
14.0
  0
CIRCLE
  5
93
330
1F
100
AcDbEntity
  8
0
  6
Continuous
 62
     7
370
    25
100
AcDbCircle
 10
230.9058620766
 20
-179.1365241784
 30
0.0
 40
14.0
  0
CIRCLE
  5
94
330
1F
100
AcDbEntity
  8
0
  6
Continuous
 62
     7
370
    25
100
AcDbCircle
 10
39.3153255641
 20
-179.1365241784
 30
0.0
 40
14.00000000000001
  0
CIRCLE
  5
95
330
1F
100
AcDbEntity
  8
0
  6
Continuous
 62
     7
370
    25
100
AcDbCircle
 10
-115.6846744359
 20
-66.5224323375
 30
0.0
 40
14.00000000000001
  0
CIRCLE
  5
96
330
1F
100
AcDbEntity
  8
0
  6
Continuous
 62
     7
370
    25
100
AcDbCircle
 10
-174.8894061797
 20
115.6909958732
 30
0.0
 40
14.0
  0
CIRCLE
  5
97
330
1F
100
AcDbEntity
  8
0
  6
Continuous
 62
     7
370
    25
100
AcDbCircle
 10
-115.6846744359
 20
297.9044240839
 30
0.0
 40
14.00000000000001
  0
CIRCLE
  5
98
330
1F
100
AcDbEntity
  8
0
  6
Continuous
 62
     7
370
    25
100
AcDbCircle
 10
39.3153255642
 20
410.5185159247
 30
0.0
 40
14.00000000000001
  0
CIRCLE
  5
99
330
1F
100
AcDbEntity
  8
0
  6
Continuous
 62
     7
370
    25
100
AcDbCircle
 10
385.9058620766
 20
-66.5224323375
 30
0.0
 40
13.0
  0
CIRCLE
  5
9A
330
1F
100
AcDbEntity
  8
0
  6
Continuous
 62
     7
370
    25
100
AcDbCircle
 10
445.1105938204
 20
115.6909958731
 30
0.0
 40
13.0
  0
CIRCLE
  5
9B
330
1F
100
AcDbEntity
  8
0
  6
Continuous
 62
     7
370
    25
100
AcDbCircle
 10
317.3240220311
 20
366.4862641294
 30
0.0
 40
13.0
  0
CIRCLE
  5
9C
330
1F
100
AcDbEntity
  8
0
  6
Continuous
 62
     7
370
    25
100
AcDbCircle
 10
429.9381138719
 20
211.4862641294
 30
0.0
 40
13.0
  0
CIRCLE
  5
9D
330
1F
100
AcDbEntity
  8
0
  6
Continuous
 62
     7
370
    25
100
AcDbCircle
 10
135.1105938204
 20
115.6909958732
 30
0.0
 40
266.5
  0
CIRCLE
  5
9E
330
1F
100
AcDbEntity
  8
0
  6
Continuous
 62
     7
370
    25
100
AcDbCircle
 10
135.1105938204
 20
115.6909958732
 30
0.0
 40
343.9999999999999
  0
CIRCLE
  5
9F
330
1F
100
AcDbEntity
  8
0
  6
Continuous
 62
     7
370
    25
100
AcDbCircle
 10
135.1105938204
 20
425.6909958732
 30
0.0
 40
13.0
  0
CIRCLE
  5
A0
330
1F
100
AcDbEntity
  8
0
  6
Continuous
 62
     7
370
    25
100
AcDbCircle
 10
230.9058620767
 20
410.5185159247
 30
0.0
 40
13.0
  0
CIRCLE
  5
A1
330
1F
100
AcDbEntity
  8
0
  6
Continuous
 62
     7
370
    25
100
AcDbCircle
 10
385.9058620767
 20
297.9044240838
 30
0.0
 40
13.00000000000006
  0
CIRCLE
  5
A2
330
1F
100
AcDbEntity
  8
0
  6
Continuous
 62
     7
370
    25
100
AcDbCircle
 10
429.9381138719
 20
19.8957276169
 30
0.0
 40
13.0
  0
CIRCLE
  5
A3
330
1F
100
AcDbEntity
  8
0
  6
Continuous
 62
     7
370
    25
100
AcDbCircle
 10
317.3240220311
 20
-135.1042723831
 30
0.0
 40
13.0
  0
CIRCLE
  5
A4
330
1F
100
AcDbEntity
  8
0
  6
Continuous
 62
     7
370
    25
100
AcDbCircle
 10
39.3153255642
 20
410.5185159247
 30
0.0
 40
13.00000000000001
  0
CIRCLE
  5
A5
330
1F
100
AcDbEntity
  8
0
  6
Continuous
 62
     7
370
    25
100
AcDbCircle
 10
-115.6846744359
 20
297.9044240839
 30
0.0
 40
13.00000000000001
  0
CIRCLE
  5
A6
330
1F
100
AcDbEntity
  8
0
  6
Continuous
 62
     7
370
    25
100
AcDbCircle
 10
-174.8894061797
 20
115.6909958732
 30
0.0
 40
13.0
  0
CIRCLE
  5
A7
330
1F
100
AcDbEntity
  8
0
  6
Continuous
 62
     7
370
    25
100
AcDbCircle
 10
-115.6846744359
 20
-66.5224323375
 30
0.0
 40
13.00000000000001
  0
CIRCLE
  5
A8
330
1F
100
AcDbEntity
  8
0
  6
Continuous
 62
     7
370
    25
100
AcDbCircle
 10
39.3153255641
 20
-179.1365241784
 30
0.0
 40
13.00000000000001
  0
CIRCLE
  5
A9
330
1F
100
AcDbEntity
  8
0
  6
Continuous
 62
     7
370
    25
100
AcDbCircle
 10
230.9058620766
 20
-179.1365241784
 30
0.0
 40
13.0
  0
CIRCLE
  5
AA
330
1F
100
AcDbEntity
  8
0
  6
Continuous
 62
     7
370
    25
100
AcDbCircle
 10
-47.1028343903
 20
-135.1042723831
 30
0.0
 40
13.00000000000001
  0
CIRCLE
  5
AB
330
1F
100
AcDbEntity
  8
0
  6
Continuous
 62
     7
370
    25
100
AcDbCircle
 10
-159.7169262312
 20
19.8957276169
 30
0.0
 40
13.0
  0
CIRCLE
  5
AC
330
1F
100
AcDbEntity
  8
0
  6
Continuous
 62
     7
370
    25
100
AcDbCircle
 10
-159.7169262312
 20
211.4862641294
 30
0.0
 40
13.0
  0
CIRCLE
  5
AD
330
1F
100
AcDbEntity
  8
0
  6
Continuous
 62
     7
370
    25
100
AcDbCircle
 10
135.1105938204
 20
-194.3090041269
 30
0.0
 40
13.0
  0
CIRCLE
  5
AE
330
1F
100
AcDbEntity
  8
0
  6
Continuous
 62
     7
370
    25
100
AcDbCircle
 10
-47.1028343903
 20
366.4862641295
 30
0.0
 40
13.00000000000001
  0
INSERT
  5
BA
330
1F
100
AcDbEntity
  8
FORMAT
 62
     7
100
AcDbBlockReference
  2
SW_CENTERMARKSYMBOL_0
 10
135.1105938204
 20
115.6909958732
 30
0.0
  0
INSERT
  5
C6
330
1F
100
AcDbEntity
  8
FORMAT
 62
     7
100
AcDbBlockReference
  2
SW_CENTERMARKSYMBOL_1
 10
135.1105938204
 20
425.6909958732
 30
0.0
  0
INSERT
  5
D2
330
1F
100
AcDbEntity
  8
FORMAT
 62
     7
100
AcDbBlockReference
  2
SW_CENTERMARKSYMBOL_2
 10
230.9058620767
 20
410.5185159247
 30
0.0
  0
INSERT
  5
DE
330
1F
100
AcDbEntity
  8
FORMAT
 62
     7
100
AcDbBlockReference
  2
SW_CENTERMARKSYMBOL_3
 10
317.3240220311
 20
366.4862641294
 30
0.0
  0
INSERT
  5
EA
330
1F
100
AcDbEntity
  8
FORMAT
 62
     7
100
AcDbBlockReference
  2
SW_CENTERMARKSYMBOL_4
 10
385.9058620767
 20
297.9044240838
 30
0.0
  0
INSERT
  5
F6
330
1F
100
AcDbEntity
  8
FORMAT
 62
     7
100
AcDbBlockReference
  2
SW_CENTERMARKSYMBOL_5
 10
-115.6846744359
 20
-66.5224323375
 30
0.0
  0
INSERT
  5
102
330
1F
100
AcDbEntity
  8
FORMAT
 62
     7
100
AcDbBlockReference
  2
SW_CENTERMARKSYMBOL_6
 10
-174.8894061797
 20
115.6909958732
 30
0.0
  0
INSERT
  5
10E
330
1F
100
AcDbEntity
  8
FORMAT
 62
     7
100
AcDbBlockReference
  2
SW_CENTERMARKSYMBOL_7
 10
-115.6846744359
 20
297.9044240839
 30
0.0
  0
INSERT
  5
11A
330
1F
100
AcDbEntity
  8
FORMAT
 62
     7
100
AcDbBlockReference
  2
SW_CENTERMARKSYMBOL_8
 10
39.3153255642
 20
410.5185159247
 30
0.0
  0
INSERT
  5
126
330
1F
100
AcDbEntity
  8
FORMAT
 62
     7
100
AcDbBlockReference
  2
SW_CENTERMARKSYMBOL_9
 10
385.9058620766
 20
-66.5224323375
 30
0.0
  0
INSERT
  5
132
330
1F
100
AcDbEntity
  8
FORMAT
 62
     7
100
AcDbBlockReference
  2
SW_CENTERMARKSYMBOL_10
 10
429.9381138719
 20
19.8957276169
 30
0.0
  0
INSERT
  5
13E
330
1F
100
AcDbEntity
  8
FORMAT
 62
     7
100
AcDbBlockReference
  2
SW_CENTERMARKSYMBOL_11
 10
445.1105938204
 20
115.6909958731
 30
0.0
  0
INSERT
  5
14A
330
1F
100
AcDbEntity
  8
FORMAT
 62
     7
100
AcDbBlockReference
  2
SW_CENTERMARKSYMBOL_12
 10
429.9381138719
 20
211.4862641294
 30
0.0
  0
INSERT
  5
156
330
1F
100
AcDbEntity
  8
FORMAT
 62
     7
100
AcDbBlockReference
  2
SW_CENTERMARKSYMBOL_13
 10
-47.1028343903
 20
366.4862641295
 30
0.0
  0
INSERT
  5
162
330
1F
100
AcDbEntity
  8
FORMAT
 62
     7
100
AcDbBlockReference
  2
SW_CENTERMARKSYMBOL_14
 10
-159.7169262312
 20
211.4862641294
 30
0.0
  0
INSERT
  5
16E
330
1F
100
AcDbEntity
  8
FORMAT
 62
     7
100
AcDbBlockReference
  2
SW_CENTERMARKSYMBOL_15
 10
-159.7169262312
 20
19.8957276169
 30
0.0
  0
INSERT
  5
17A
330
1F
100
AcDbEntity
  8
FORMAT
 62
     7
100
AcDbBlockReference
  2
SW_CENTERMARKSYMBOL_16
 10
-47.1028343903
 20
-135.1042723831
 30
0.0
  0
INSERT
  5
186
330
1F
100
AcDbEntity
  8
FORMAT
 62
     7
100
AcDbBlockReference
  2
SW_CENTERMARKSYMBOL_17
 10
39.3153255641
 20
-179.1365241784
 30
0.0
  0
INSERT
  5
192
330
1F
100
AcDbEntity
  8
FORMAT
 62
     7
100
AcDbBlockReference
  2
SW_CENTERMARKSYMBOL_18
 10
135.1105938204
 20
-194.3090041269
 30
0.0
  0
INSERT
  5
19E
330
1F
100
AcDbEntity
  8
FORMAT
 62
     7
100
AcDbBlockReference
  2
SW_CENTERMARKSYMBOL_19
 10
230.9058620766
 20
-179.1365241784
 30
0.0
  0
INSERT
  5
1AA
330
1F
100
AcDbEntity
  8
FORMAT
 62
     7
100
AcDbBlockReference
  2
SW_CENTERMARKSYMBOL_20
 10
317.3240220311
 20
-135.1042723831
 30
0.0
  0
LINE
  5
1AB
330
1F
100
AcDbEntity
  8
0
  6
Continuous
 62
     7
370
    25
100
AcDbLine
 10
-564.9925344854
 20
459.6909958732
 30
0.0
 11
-607.9925344854
 21
459.6909958732
 31
0.0
  0
LINE
  5
1AC
330
1F
100
AcDbEntity
  8
0
  6
Continuous
 62
     7
370
    25
100
AcDbLine
 10
-607.9925344854
 20
-228.3090041268
 30
0.0
 11
-564.9925344854
 21
-228.3090041268
 31
0.0
  0
ARC
  5
1AD
330
1F
100
AcDbEntity
  8
0
  6
Continuous
 62
     7
370
    25
100
AcDbCircle
 10
-564.9925344854
 20
-227.3090041268
 30
0.0
 40
1.0
100
AcDbArc
 50
270.0
 51
0.0
  0
ARC
  5
1AE
330
1F
100
AcDbEntity
  8
0
  6
Continuous
 62
     7
370
    25
100
AcDbCircle
 10
-564.9925344854
 20
458.6909958732
 30
0.0
 40
1.0
100
AcDbArc
 50
0.0
 51
90.0
  0
ARC
  5
1AF
330
1F
100
AcDbEntity
  8
0
  6
Continuous
 62
     7
370
    25
100
AcDbCircle
 10
-607.9925344854
 20
-227.3090041268
 30
0.0
 40
1.0
100
AcDbArc
 50
180.0
 51
270.0
  0
ARC
  5
1B0
330
1F
100
AcDbEntity
  8
0
  6
Continuous
 62
     7
370
    25
100
AcDbCircle
 10
-607.9925344854
 20
458.6909958732
 30
0.0
 40
1.0
100
AcDbArc
 50
90.0
 51
180.0
  0
LINE
  5
1B1
330
1F
100
AcDbEntity
  8
0
  6
Continuous
 62
     7
370
    25
100
AcDbLine
 10
-563.9925344854
 20
115.6909958732
 30
0.0
 11
-563.9925344854
 21
-227.3090041268
 31
0.0
  0
LINE
  5
1B2
330
1F
100
AcDbEntity
  8
0
  6
Continuous
 62
     7
370
    25
100
AcDbLine
 10
-563.9925344854
 20
458.6909958732
 30
0.0
 11
-563.9925344854
 21
115.6909958732
 31
0.0
  0
LINE
  5
1B3
330
1F
100
AcDbEntity
  8
0
  6
Continuous
 62
     7
370
    25
100
AcDbLine
 10
-608.9925344854
 20
115.6909958732
 30
0.0
 11
-608.9925344854
 21
458.6909958732
 31
0.0
  0
LINE
  5
1B4
330
1F
100
AcDbEntity
  8
0
  6
Continuous
 62
     7
370
    25
100
AcDbLine
 10
-608.9925344854
 20
-227.3090041268
 30
0.0
 11
-608.9925344854
 21
115.6909958732
 31
0.0
  0
LINE
  5
1B5
330
1F
100
AcDbEntity
  8
0
  6
Continuous
 62
     1
370
    25
100
AcDbLine
 10
-607.9925344854
 20
115.6909958732
 30
0.0
 11
-607.9925344854
 21
-228.3090041268
 31
0.0
  0
LINE
  5
1B6
330
1F
100
AcDbEntity
  8
0
  6
Continuous
 62
     1
370
    25
100
AcDbLine
 10
-607.9925344854
 20
459.6909958732
 30
0.0
 11
-607.9925344854
 21
115.6909958732
 31
0.0
  0
LINE
  5
1B7
330
1F
100
AcDbEntity
  8
0
  6
Continuous
 62
     1
370
    25
100
AcDbLine
 10
-564.9925344854
 20
115.6909958732
 30
0.0
 11
-564.9925344854
 21
459.6909958732
 31
0.0
  0
LINE
  5
1B8
330
1F
100
AcDbEntity
  8
0
  6
Continuous
 62
     1
370
    25
100
AcDbLine
 10
-564.9925344854
 20
-228.3090041268
 30
0.0
 11
-564.9925344854
 21
115.6909958732
 31
0.0
  0
LINE
  5
1B9
330
1F
100
AcDbEntity
  8
0
  6
Continuous
 62
     7
370
    25
100
AcDbLine
 10
823.2329769577
 20
-228.3090041268
 30
0.0
 11
866.2329769577
 21
-228.3090041268
 31
0.0
  0
LINE
  5
1BA
330
1F
100
AcDbEntity
  8
0
  6
Continuous
 62
     7
370
    25
100
AcDbLine
 10
866.2329769577
 20
459.6909958732
 30
0.0
 11
823.2329769577
 21
459.6909958732
 31
0.0
  0
ARC
  5
1BB
330
1F
100
AcDbEntity
  8
0
  6
Continuous
 62
     7
370
    25
100
AcDbCircle
 10
823.2329769577
 20
458.6909958732
 30
0.0
 40
1.0
100
AcDbArc
 50
90.0
 51
180.0
  0
ARC
  5
1BC
330
1F
100
AcDbEntity
  8
0
  6
Continuous
 62
     7
370
    25
100
AcDbCircle
 10
823.2329769577
 20
-227.3090041268
 30
0.0
 40
1.0
100
AcDbArc
 50
180.0
 51
270.0
  0
ARC
  5
1BD
330
1F
100
AcDbEntity
  8
0
  6
Continuous
 62
     7
370
    25
100
AcDbCircle
 10
866.2329769577
 20
458.6909958732
 30
0.0
 40
1.0
100
AcDbArc
 50
0.0
 51
90.0
  0
ARC
  5
1BE
330
1F
100
AcDbEntity
  8
0
  6
Continuous
 62
     7
370
    25
100
AcDbCircle
 10
866.2329769577
 20
-227.3090041268
 30
0.0
 40
1.0
100
AcDbArc
 50
270.0
 51
0.0
  0
LINE
  5
1BF
330
1F
100
AcDbEntity
  8
0
  6
Continuous
 62
     7
370
    25
100
AcDbLine
 10
822.2329769577
 20
-227.3090041268
 30
0.0
 11
822.2329769577
 21
458.6909958732
 31
0.0
  0
LINE
  5
1C0
330
1F
100
AcDbEntity
  8
0
  6
Continuous
 62
     7
370
    25
100
AcDbLine
 10
867.2329769577
 20
458.6909958732
 30
0.0
 11
867.2329769577
 21
-227.3090041268
 31
0.0
  0
LINE
  5
1C1
330
1F
100
AcDbEntity
  8
0
  6
Continuous
 62
     1
370
    25
100
AcDbLine
 10
866.2329769577
 20
-228.3090041268
 30
0.0
 11
866.2329769577
 21
459.6909958732
 31
0.0
  0
LINE
  5
1C2
330
1F
100
AcDbEntity
  8
0
  6
Continuous
 62
     1
370
    25
100
AcDbLine
 10
823.2329769577
 20
459.6909958732
 30
0.0
 11
823.2329769577
 21
-228.3090041268
 31
0.0
  0
LINE
  5
1C3
330
1F
100
AcDbEntity
  8
0
  6
Continuous
 62
     7
370
    25
100
AcDbLine
 10
479.1105938204
 20
672.4187802591
 30
0.0
 11
479.1105938204
 21
715.4187802591
 31
0.0
  0
LINE
  5
1C4
330
1F
100
AcDbEntity
  8
0
  6
Continuous
 62
     7
370
    25
100
AcDbLine
 10
-208.8894061796
 20
715.4187802591
 30
0.0
 11
-208.8894061796
 21
672.4187802591
 31
0.0
  0
ARC
  5
1C5
330
1F
100
AcDbEntity
  8
0
  6
Continuous
 62
     7
370
    25
100
AcDbCircle
 10
-207.8894061796
 20
672.4187802591
 30
0.0
 40
1.0
100
AcDbArc
 50
180.0
 51
270.0
  0
ARC
  5
1C6
330
1F
100
AcDbEntity
  8
0
  6
Continuous
 62
     7
370
    25
100
AcDbCircle
 10
478.1105938204
 20
672.4187802591
 30
0.0
 40
1.0
100
AcDbArc
 50
270.0
 51
0.0
  0
ARC
  5
1C7
330
1F
100
AcDbEntity
  8
0
  6
Continuous
 62
     7
370
    25
100
AcDbCircle
 10
-207.8894061796
 20
715.4187802591
 30
0.0
 40
1.0
100
AcDbArc
 50
90.0
 51
180.0
  0
ARC
  5
1C8
330
1F
100
AcDbEntity
  8
0
  6
Continuous
 62
     7
370
    25
100
AcDbCircle
 10
478.1105938204
 20
715.4187802591
 30
0.0
 40
1.0
100
AcDbArc
 50
0.0
 51
90.0
  0
LINE
  5
1C9
330
1F
100
AcDbEntity
  8
0
  6
Continuous
 62
     7
370
    25
100
AcDbLine
 10
478.1105938204
 20
671.4187802591
 30
0.0
 11
-207.8894061789
 21
671.4187802591
 31
0.0
  0
LINE
  5
1CA
330
1F
100
AcDbEntity
  8
0
  6
Continuous
 62
     7
370
    25
100
AcDbLine
 10
478.1105938204
 20
716.4187802591
 30
0.0
 11
-207.8894061796
 21
716.4187802591
 31
0.0
  0
LINE
  5
1CB
330
1F
100
AcDbEntity
  8
0
  6
Continuous
 62
     1
370
    25
100
AcDbLine
 10
479.1105938204
 20
715.4187802591
 30
0.0
 11
-208.8894061796
 21
715.4187802591
 31
0.0
  0
LINE
  5
1CC
330
1F
100
AcDbEntity
  8
0
  6
Continuous
 62
     1
370
    25
100
AcDbLine
 10
-208.8894061796
 20
672.4187802591
 30
0.0
 11
479.1105938204
 21
672.4187802591
 31
0.0
  0
LINE
  5
1CD
330
1F
100
AcDbEntity
  8
0
  6
Continuous
 62
     7
370
    25
100
AcDbLine
 10
-208.8894061796
 20
-715.9605990727
 30
0.0
 11
-208.8894061796
 21
-758.9605990727
 31
0.0
  0
LINE
  5
1CE
330
1F
100
AcDbEntity
  8
0
  6
Continuous
 62
     7
370
    25
100
AcDbLine
 10
479.1105938204
 20
-758.9605990727
 30
0.0
 11
479.1105938204
 21
-715.9605990727
 31
0.0
  0
ARC
  5
1CF
330
1F
100
AcDbEntity
  8
0
  6
Continuous
 62
     7
370
    25
100
AcDbCircle
 10
478.1105938204
 20
-715.9605990727
 30
0.0
 40
1.0
100
AcDbArc
 50
0.0
 51
90.0
  0
ARC
  5
1D0
330
1F
100
AcDbEntity
  8
0
  6
Continuous
 62
     7
370
    25
100
AcDbCircle
 10
-207.8894061796
 20
-715.9605990727
 30
0.0
 40
1.0
100
AcDbArc
 50
90.0
 51
180.0
  0
ARC
  5
1D1
330
1F
100
AcDbEntity
  8
0
  6
Continuous
 62
     7
370
    25
100
AcDbCircle
 10
478.1105938204
 20
-758.9605990727
 30
0.0
 40
1.0
100
AcDbArc
 50
270.0
 51
0.0
  0
ARC
  5
1D2
330
1F
100
AcDbEntity
  8
0
  6
Continuous
 62
     7
370
    25
100
AcDbCircle
 10
-207.8894061796
 20
-758.9605990727
 30
0.0
 40
1.0
100
AcDbArc
 50
180.0
 51
270.0
  0
LINE
  5
1D3
330
1F
100
AcDbEntity
  8
0
  6
Continuous
 62
     7
370
    25
100
AcDbLine
 10
478.1105938204
 20
-714.9605990727
 30
0.0
 11
-207.8894061796
 21
-714.9605990727
 31
0.0
  0
LINE
  5
1D4
330
1F
100
AcDbEntity
  8
0
  6
Continuous
 62
     7
370
    25
100
AcDbLine
 10
478.1105938204
 20
-759.9605990727
 30
0.0
 11
-207.8894061789
 21
-759.9605990727
 31
0.0
  0
LINE
  5
1D5
330
1F
100
AcDbEntity
  8
0
  6
Continuous
 62
     1
370
    25
100
AcDbLine
 10
-208.8894061796
 20
-758.9605990727
 30
0.0
 11
479.1105938204
 21
-758.9605990727
 31
0.0
  0
LINE
  5
1D6
330
1F
100
AcDbEntity
  8
0
  6
Continuous
 62
     1
370
    25
100
AcDbLine
 10
479.1105938204
 20
-715.9605990727
 30
0.0
 11
-208.8894061796
 21
-715.9605990727
 31
0.0
  0
SPLINE
  5
1D7
330
1F
100
AcDbEntity
  8
0
  6
Continuous
 62
     7
370
    25
100
AcDbSpline
210
0.0
220
0.0
230
1.0
 70
     8
 71
     3
 72
    94
 73
    90
 74
     0
 42
0.00000001
 43
0.00000001
 40
0.0
 40
0.0
 40
0.0
 40
0.0
 40
0.0100868184677359
 40
0.0216897211909515
 40
0.0332954173807962
 40
0.0449037487951827
 40
0.0565145088647238
 40
0.0681274592559175
 40
0.0797423446614598
 40
0.0913589052315604
 40
0.102976886421097
 40
0.1145960463028264
 40
0.1262161605809232
 40
0.1378370256422252
 40
0.1494584600207305
 40
0.1610803046439269
 40
0.172702422194286
 40
0.1843246958694108
 40
0.19594702290989
 40
0.2075693038743936
 40
0.2191914778943329
 40
0.2308134968943353
 40
0.2424353238869164
 40
0.2540569314069806
 40
0.2656783000997903
 40
0.2772994174661532
 40
0.2889202767609477
 40
0.3005408760361858
 40
0.3121612173171
 40
0.3237813058983958
 40
0.3354011497474557
 40
0.3470207590016818
 40
0.3586401455478714
 40
0.3702593226725619
 40
0.3818783047732756
 40
0.3934971071217789
 40
0.4051157456714911
 40
0.4167342369021247
 40
0.4283525976956222
 40
0.4399708452381504
 40
0.4515889969436939
 40
0.4632070703953204
 40
0.4748250833007524
 40
0.486443053459222
 40
0.4980609987370455
 40
0.5096789370494695
 40
0.5212968846917035
 40
0.5329148553078126
 40
0.544532866886727
 40
0.5561509374198392
 40
0.5677690848844694
 40
0.5793873272221961
 40
0.5910056823095037
 40
0.6026241679181471
 40
0.6142428016623988
 40
0.62586160092994
 40
0.6374805827926097
 40
0.649099763892803
 40
0.6607191603004657
 40
0.6723387873349794
 40
0.6839586593453532
 40
0.6955787894410969
 40
0.7071991891651367
 40
0.7188198680990556
 40
0.7304408333897038
 40
0.7420620891852324
 40
0.7536836359676229
 40
0.7653054697682162
 40
0.7769275812526446
 40
0.7885499546623348
 40
0.8001725666017703
 40
0.8117953846645465
 40
0.8234183658974122
 40
0.835041455111218
 40
0.8466645726722711
 40
0.8582876116988752
 40
0.8699104627848302
 40
0.8815329962226066
 40
0.8931550604895189
 40
0.9047764812223162
 40
0.9163970609409613
 40
0.9280165798382265
 40
0.9396347979966414
 40
0.9512514594180776
 40
0.9628662982373327
 40
0.974479047420818
 40
0.9860894501055167
 40
0.9976972734977113
 40
1.0
 40
1.0
 40
1.0
 40
1.0
 10
964.9779437529236
 20
-344.1746882622624
 30
0.0
 10
963.1145631596523
 20
-344.0289922463555
 30
0.0
 10
959.1077293230014
 20
-343.7157015914519
 30
0.0
 10
952.8278239272072
 20
-343.5867296284875
 30
0.0
 10
946.1729694095446
 20
-343.7127188793229
 30
0.0
 10
939.4212281161044
 20
-344.1350914086808
 30
0.0
 10
932.5824816005239
 20
-344.8439607064888
 30
0.0
 10
925.662112683251
 20
-345.8412652740569
 30
0.0
 10
918.666814446417
 20
-347.1254172327376
 30
0.0
 10
911.6030195983525
 20
-348.6954188279796
 30
0.0
 10
904.4773087142092
 20
-350.5497623853806
 30
0.0
 10
897.2962891583625
 20
-352.6867295016904
 30
0.0
 10
890.0666169732613
 20
-355.1043159113589
 30
0.0
 10
882.7949814777095
 20
-357.8002570627293
 30
0.0
 10
875.4881007452625
 20
-360.7720268651505
 30
0.0
 10
868.152714883999
 20
-364.0168436353614
 30
0.0
 10
860.7955804492352
 20
-367.5316740366617
 30
0.0
 10
853.4234659634606
 20
-371.3132369141513
 30
0.0
 10
846.0431495550786
 20
-375.3580056287058
 30
0.0
 10
838.6614087983388
 20
-379.6622142863662
 30
0.0
 10
831.2850145710153
 20
-384.2218626357847
 30
0.0
 10
823.9207230529001
 20
-389.0327224808649
 30
0.0
 10
816.5752755420209
 20
-394.0903389401764
 30
0.0
 10
809.2553931232611
 20
-399.3900345663427
 30
0.0
 10
801.9677712589792
 20
-404.9269135732573
 30
0.0
 10
794.7190743062465
 20
-410.6958661937242
 30
0.0
 10
787.5159299690309
 20
-416.6915731856558
 30
0.0
 10
780.3649236965821
 20
-422.9085105004864
 30
0.0
 10
773.2725930409183
 20
-429.340954123538
 30
0.0
 10
766.2454219871026
 20
-435.9829850926499
 30
0.0
 10
759.2898352701791
 20
-442.8284946985087
 30
0.0
 10
752.4121926924131
 20
-449.8711898677087
 30
0.0
 10
745.6187834539709
 20
-457.1045987276408
 30
0.0
 10
738.9158205095321
 20
-464.5220763507136
 30
0.0
 10
732.309434962596
 20
-472.116810674172
 30
0.0
 10
725.8056705084961
 20
-479.881828590771
 30
0.0
 10
719.4104779364014
 20
-487.8100022047975
 30
0.0
 10
713.1297096998835
 20
-495.8940552473183
 30
0.0
 10
706.9691145649846
 20
-504.1265696440514
 30
0.0
 10
700.9343323441115
 20
-512.499992228909
 30
0.0
 10
695.0308887235603
 20
-521.0066415959491
 30
0.0
 10
689.2641901919683
 20
-529.6387150822558
 30
0.0
 10
683.6395190765725
 20
-538.3882958740719
 30
0.0
 10
678.1620286937433
 20
-547.2473602283627
 30
0.0
 10
672.8367386199317
 20
-556.2077848018254
 30
0.0
 10
667.6685303342064
 20
-565.2613536494084
 30
0.0
 10
662.662143089027
 20
-574.3997650204643
 30
0.0
 10
657.8221688577884
 20
-583.614640059723
 30
0.0
 10
653.1530479225577
 20
-592.8975309503235
 30
0.0
 10
648.6590645432584
 20
-602.2399294101833
 30
0.0
 10
644.3443436859407
 20
-611.6332733577536
 30
0.0
 10
640.212847284713
 20
-621.0689547611671
 30
0.0
 10
636.2683706631187
 20
-630.538327526868
 30
0.0
 10
632.514539118846
 20
-640.0327154182346
 30
0.0
 10
628.9548046753055
 20
-649.5434199946112
 30
0.0
 10
625.5924430032771
 20
-659.0617285608691
 30
0.0
 10
622.4305505154564
 20
-668.5789221173184
 30
0.0
 10
619.4720416363009
 20
-678.0862832994239
 30
0.0
 10
616.7196462490543
 20
-687.5751042964198
 30
0.0
 10
614.1759073212037
 20
-697.0366947375052
 30
0.0
 10
611.8431787088887
 20
-706.4623895338867
 30
0.0
 10
609.7236231398782
 20
-715.843556664498
 30
0.0
 10
607.8192103736388
 20
-725.1716048928374
 30
0.0
 10
606.1317155357309
 20
-734.4379914019848
 30
0.0
 10
604.6627176221881
 20
-743.634229334629
 30
0.0
 10
603.4135981676944
 20
-752.751895224807
 30
0.0
 10
602.3855400691847
 20
-761.7826363082422
 30
0.0
 10
601.5795265539643
 20
-770.7181776986696
 30
0.0
 10
600.996340278567
 20
-779.5503294185809
 30
0.0
 10
600.6365625413436
 20
-788.2709932745681
 30
0.0
 10
600.500572588369
 20
-796.8721695700821
 30
0.0
 10
600.5885469885119
 20
-805.345963652549
 30
0.0
 10
600.9004590507853
 20
-813.6845922962777
 30
0.0
 10
601.4360780920847
 20
-821.8803874915266
 30
0.0
 10
602.1949682385716
 20
-829.9258001745011
 30
0.0
 10
603.1764874374726
 20
-837.8134102831795
 30
0.0
 10
604.3797870272487
 20
-845.5359349567257
 30
0.0
 10
605.8038113481723
 20
-853.086237011275
 30
0.0
 10
607.4472973634416
 20
-860.4573262707563
 30
0.0
 10
609.3087701664572
 20
-867.6423702093907
 30
0.0
 10
611.3865548651338
 20
-874.6346847319506
 30
0.0
 10
613.6787273803748
 20
-881.4278007334593
 30
0.0
 10
616.1832937171088
 20
-888.0152500894541
 30
0.0
 10
618.8975179787677
 20
-894.3914012631593
 30
0.0
 10
621.8204289362241
 20
-900.5483815279648
 30
0.0
 10
624.9434703876645
 20
-906.4876038127848
 30
0.0
 10
628.285392457104
 20
-912.1768059225667
 30
0.0
 10
630.8333613838801
 20
-916.2321996840321
 30
0.0
 10
632.3261473496325
 20
-918.3154165597444
 30
0.0
 10
632.5732603560671
 20
-918.6602683985363
 30
0.0
  0
LINE
  5
1D8
330
1F
100
AcDbEntity
  8
0
  6
Continuous
 62
     7
370
    25
100
AcDbLine
 10
1046.4658527378
 20
-377.383406901
 30
0.0
 11
1016.0602611467
 21
-359.8306324968
 31
0.0
  0
LINE
  5
1D9
330
1F
100
AcDbEntity
  8
0
  6
Continuous
 62
     7
370
    25
100
AcDbLine
 10
672.0882171199
 20
-955.6722498147
 30
0.0
 11
702.493808711
 21
-973.2250242189
 31
0.0
  0
SPLINE
  5
1DA
330
1F
100
AcDbEntity
  8
0
  6
Continuous
 62
     7
370
    25
100
AcDbSpline
210
0.0
220
0.0
230
1.0
 70
     8
 71
     3
 72
    77
 73
    73
 74
     0
 42
0.00000001
 43
0.00000001
 40
0.0
 40
0.0
 40
0.0
 40
0.0
 40
0.0039382476176066
 40
0.0184063354035774
 40
0.0328779910259928
 40
0.047353066511722
 40
0.0618313399334814
 40
0.0763125368523257
 40
0.0907963502808658
 40
0.1052824581096239
 40
0.1197705374414589
 40
0.1342602756924144
 40
0.1487513786185282
 40
0.1632435756187395
 40
0.1777366227600825
 40
0.1922303039958004
 40
0.2067244310229586
 40
0.2212188421737601
 40
0.2357134006698004
 40
0.2502079749687563
 40
0.2647024619938704
 40
0.2791967919371567
 40
0.2936909101478238
 40
0.3081847750662888
 40
0.3226783563406034
 40
0.3371716331373627
 40
0.3516645926478094
 40
0.3661572287817201
 40
0.3806495410365505
 40
0.3951415335267444
 40
0.4096332141568382
 40
0.4241245939220064
 40
0.4386156863203876
 40
0.4531065068624612
 40
0.4675970726641916
 40
0.4820874021119205
 40
0.4965775145883549
 40
0.511067430250333
 40
0.5255571698501829
 40
0.5400467545936198
 40
0.5545362060279951
 40
0.5690255459556124
 40
0.5835147963674667
 40
0.5980039793934203
 40
0.6124931172652099
 40
0.626982232289154
 40
0.6414713468257394
 40
0.655960478474251
 40
0.6704496469941691
 40
0.6849388748232922
 40
0.6994281843954961
 40
0.7139175981181344
 40
0.7284071383418346
 40
0.7428968273196126
 40
0.7573866871518542
 40
0.7718767397135634
 40
0.7863670065595432
 40
0.8008575088026256
 40
0.8153482669593126
 40
0.8298393007562762
 40
0.8443306288902026
 40
0.8588222687322615
 40
0.8733142359673228
 40
0.8878065441565952
 40
0.9022992042110323
 40
0.9167922237613301
 40
0.9312856064092309
 40
0.9457793508436053
 40
0.9602734498043497
 40
0.9747678888774118
 40
0.9892626451055531
 40
0.9999999999999999
 40
0.9999999999999999
 40
0.9999999999999999
 40
0.9999999999999999
 10
753.3487249117903
 20
-988.848567025238
 30
0.0
 10
753.9267510452688
 20
-988.9080549082481
 30
0.0
 10
756.6282934361723
 20
-989.1860856552834
 30
0.0
 10
761.5637294945166
 20
-989.3937898547491
 30
0.0
 10
768.1512959929311
 20
-989.4625287186259
 30
0.0
 10
774.8453965357785
 20
-989.2200043676705
 30
0.0
 10
781.628944205566
 20
-988.6947056990695
 30
0.0
 10
788.4985610123267
 20
-987.8794817980023
 30
0.0
 10
795.4470810446732
 20
-986.7770916852666
 30
0.0
 10
802.4682543208534
 20
-985.3879945745517
 30
0.0
 10
809.5554993352532
 20
-983.7136200772201
 30
0.0
 10
816.7022497572223
 20
-981.7554879809218
 30
0.0
 10
823.901872765916
 20
-979.515439508688
 30
0.0
 10
831.1477011093812
 20
-976.9955701140158
 30
0.0
 10
838.4330337050815
 20
-974.1982419700735
 30
0.0
 10
845.7511438449533
 20
-971.1260750040716
 30
0.0
 10
853.0952847095558
 20
-967.7819437106647
 30
0.0
 10
860.458695120457
 20
-964.1689725132622
 30
0.0
 10
867.8346019258482
 20
-960.2905331961435
 30
0.0
 10
875.2162266071845
 20
-956.1502405656828
 30
0.0
 10
882.59679307676
 20
-951.7519471362983
 30
0.0
 10
889.9695357531627
 20
-947.0997369089647
 30
0.0
 10
897.3277032961529
 20
-942.1979216234287
 30
0.0
 10
904.6645611919478
 20
-937.0510382060041
 30
0.0
 10
911.9733971133409
 20
-931.6638446136546
 30
0.0
 10
919.2475263567038
 20
-926.0413155613718
 30
0.0
 10
926.4802973497441
 20
-920.1886381119522
 30
0.0
 10
933.6650972204525
 20
-914.1112071117249
 30
0.0
 10
940.79535741526
 20
-907.8146204600564
 30
0.0
 10
947.8645593531335
 20
-901.3046742042312
 30
0.0
 10
954.8662401017909
 20
-894.587357454497
 30
0.0
 10
961.7939980622164
 20
-887.6688471167797
 30
0.0
 10
968.6414986479878
 20
-880.5555024427946
 30
0.0
 10
975.4024799465069
 20
-873.2538593990764
 30
0.0
 10
982.0707583498988
 20
-865.7706248579173
 30
0.0
 10
988.640234144096
 20
-858.1126706143422
 30
0.0
 10
995.1048970453623
 20
-850.287027234164
 30
0.0
 10
1001.458831674241
 20
-842.3008777388776
 30
0.0
 10
1007.696222957591
 20
-834.161551133691
 30
0.0
 10
1013.811361450006
 20
-825.8765157854466
 30
0.0
 10
1019.798648566485
 20
-817.4533726575011
 30
0.0
 10
1025.652601718746
 20
-808.8998484089177
 30
0.0
 10
1031.367859348044
 20
-800.223788365515
 30
0.0
 10
1036.939185847765
 20
-791.4331493705214
 30
0.0
 10
1042.361476369467
 20
-782.5359925226918
 30
0.0
 10
1047.629761506323
 20
-773.5404758099746
 30
0.0
 10
1052.739211284279
 20
-764.4548476497389
 30
0.0
 10
1057.685139925728
 20
-755.2874389374671
 30
0.0
 10
1062.463010489477
 20
-746.0466548600103
 30
0.0
 10
1067.068439498496
 20
-736.7409661372632
 30
0.0
 10
1071.497200623864
 20
-727.3789016749467
 30
0.0
 10
1075.745228218634
 20
-717.9690413070198
 30
0.0
 10
1079.808620997954
 20
-708.520007930966
 30
0.0
 10
1083.683645558252
 20
-699.0404596070842
 30
0.0
 10
1087.366739731792
 20
-689.5390816312445
 30
0.0
 10
1090.85451577305
 20
-680.0245785908793
 30
0.0
 10
1094.143763374293
 20
-670.5056664139329
 30
0.0
 10
1097.231452506009
 20
-660.9910644220423
 30
0.0
 10
1100.11473608618
 20
-651.4894873950359
 30
0.0
 10
1102.790952453573
 20
-642.0096376711926
 30
0.0
 10
1105.257627730491
 20
-632.5601972447417
 30
0.0
 10
1107.512477752145
 20
-623.1498200591093
 30
0.0
 10
1109.553410767519
 20
-613.7871238117131
 30
0.0
 10
1111.378526419729
 20
-604.4806838825585
 30
0.0
 10
1112.986127781273
 20
-595.2390196976663
 30
0.0
 10
1114.374683852632
 20
-586.0706097502997
 30
0.0
 10
1115.542976153186
 20
-576.9838001516873
 30
0.0
 10
1116.489557492027
 20
-567.9871110982183
 30
0.0
 10
1117.214777107344
 20
-559.0880588481507
 30
0.0
 10
1117.713226994245
 20
-550.2975187589082
 30
0.0
 10
1117.976988621572
 20
-542.3638452048081
 30
0.0
 10
1118.00537643051
 20
-537.4017924863651
 30
0.0
 10
1118.017456671349
 20
-535.2902243823717
 30
0.0
  0
SPLINE
  5
1DB
330
1F
100
AcDbEntity
  8
0
  6
Continuous
 62
     7
370
    25
100
AcDbSpline
210
0.0
220
0.0
230
1.0
 70
     8
 71
     3
 72
    25
 73
    21
 74
     0
 42
0.00000001
 43
0.00000001
 40
0.0
 40
0.0
 40
0.0
 40
0.0
 40
0.0307864915999143
 40
0.0892731409828007
 40
0.1477622783031573
 40
0.2062517467308293
 40
0.264740997890863
 40
0.3232295164597381
 40
0.3817166881456971
 40
0.4402017914450519
 40
0.4986839914457534
 40
0.5571623368849338
 40
0.6156357619559089
 40
0.6741030946101833
 40
0.7325630732665067
 40
0.7910143738493494
 40
0.8494556488406475
 40
0.9078855794444342
 40
0.966302940948962
 40
1.0
 40
1.0
 40
1.0
 40
1.0
 10
1118.017456671349
 20
-535.2902243823717
 30
0.0
 10
1118.011214196445
 20
-533.7982746416346
 30
0.0
 10
1117.993112577415
 20
-529.4719928010486
 30
0.0
 10
1117.792004993921
 20
-522.4116509736294
 30
0.0
 10
1117.340727864732
 20
-514.1613703743601
 30
0.0
 10
1116.662952125328
 20
-506.0603396374788
 30
0.0
 10
1115.763102340117
 20
-498.1139507265584
 30
0.0
 10
1114.640919092405
 20
-490.3301182880465
 30
0.0
 10
1113.297658612927
 20
-482.7158769996408
 30
0.0
 10
1111.734433702122
 20
-475.2783132242644
 30
0.0
 10
1109.952661342615
 20
-468.0243069113408
 30
0.0
 10
1107.953937781834
 20
-460.9606001972557
 30
0.0
 10
1105.740096797993
 20
-454.093741567027
 30
0.0
 10
1103.31310746802
 20
-447.4301986659663
 30
0.0
 10
1100.675429630537
 20
-440.9759179628563
 30
0.0
 10
1097.828697232266
 20
-434.7379243752138
 30
0.0
 10
1094.77862760489
 20
-428.7183118716892
 30
0.0
 10
1091.516699554325
 20
-422.9366194954903
 30
0.0
 10
1088.571803099376
 20
-418.134416895665
 30
0.0
 10
1086.636251405714
 20
-415.3573399750004
 30
0.0
 10
1085.928192891918
 20
-414.3414368794752
 30
0.0
  0
SPLINE
  5
1DC
330
1F
100
AcDbEntity
  8
0
  6
Continuous
 62
     7
370
    25
100
AcDbSpline
210
0.0
220
0.0
230
1.0
 70
     8
 71
     3
 72
    25
 73
    21
 74
     0
 42
0.00000001
 43
0.00000001
 40
0.0
 40
0.0
 40
0.0
 40
0.0
 40
0.0094473738455747
 40
0.0712434708481524
 40
0.1330164251596028
 40
0.1947668535680805
 40
0.2564961097322422
 40
0.318206069291759
 40
0.379898927317193
 40
0.4415770235860222
 40
0.5032427031397272
 40
0.5648982133161852
 40
0.6265456342933229
 40
0.6881868379274704
 40
0.7498234688746089
 40
0.8114569421559454
 40
0.8730884520439647
 40
0.9347189880879757
 40
0.9931037045640104
 40
1.0
 40
1.0
 40
1.0
 40
1.0
 10
1003.730915149058
 20
-450.0940206808549
 30
0.0
 10
1003.909179683994
 20
-450.3108109379695
 30
0.0
 10
1005.253488102982
 20
-451.945645190892
 30
0.0
 10
1007.583102242057
 20
-455.2356305934534
 30
0.0
 10
1010.702535535347
 20
-459.9724434653825
 30
0.0
 10
1013.606977524258
 20
-464.9665638854888
 30
0.0
 10
1016.315603401301
 20
-470.1822345763562
 30
0.0
 10
1018.819289241248
 20
-475.6213163585907
 30
0.0
 10
1021.116775839729
 20
-481.2752987826466
 30
0.0
 10
1023.204980536753
 20
-487.1381508604887
 30
0.0
 10
1025.081592448493
 20
-493.2028780995848
 30
0.0
 10
1026.744379897247
 20
-499.4624451449317
 30
0.0
 10
1028.191383552379
 20
-505.9095295363322
 30
0.0
 10
1029.420862015179
 20
-512.5365968923128
 30
0.0
 10
1030.431347229139
 20
-519.3358697229334
 30
0.0
 10
1031.221509867152
 20
-526.2994109814067
 30
0.0
 10
1031.79067418875
 20
-533.4188645852648
 30
0.0
 10
1032.13084443702
 20
-540.5588840419315
 30
0.0
 10
1032.222158608108
 20
-545.6391672591767
 30
0.0
 10
1032.225002655201
 20
-548.2780809768892
 30
0.0
 10
1032.225303100744
 20
-548.5568561994907
 30
0.0
  0
SPLINE
  5
1DD
330
1F
100
AcDbEntity
  8
0
  6
Continuous
 62
     7
370
    25
100
AcDbSpline
210
0.0
220
0.0
230
1.0
 70
     8
 71
     3
 72
    70
 73
    66
 74
     0
 42
0.00000001
 43
0.00000001
 40
0.0
 40
0.0
 40
0.0
 40
0.0
 40
0.0085014965121729
 40
0.0246623030895809
 40
0.0408240562901555
 40
0.0569861844345352
 40
0.0731487538203599
 40
0.0893118093414057
 40
0.1054753781496218
 40
0.1216394728669352
 40
0.1378040943148971
 40
0.1539692338098824
 40
0.1701348750746877
 40
0.1863009958169362
 40
0.202467569021492
 40
0.2186345640001672
 40
0.2348019472369873
 40
0.2509696830627536
 40
0.2671377341879154
 40
0.2833060621187309
 40
0.2994746274779656
 40
0.3156433902481998
 40
0.331812309953084
 40
0.3479813457896903
 40
0.3641504567231846
 40
0.3803196015537405
 40
0.3964887364712168
 40
0.4126578087911191
 40
0.428826777081624
 40
0.4449955999170305
 40
0.4611642359312513
 40
0.4773326438950289
 40
0.4935007828249627
 40
0.5096686121348869
 40
0.5258360918416646
 40
0.5420031828395643
 40
0.5581698472598503
 40
0.5743360489351943
 40
0.5905017539919152
 40
0.6066669315971106
 40
0.6228315548921167
 40
0.63899560214845
 40
0.6551590581875399
 40
0.671321916110068
 40
0.6874841793849937
 40
0.7036458643506349
 40
0.7198070031798158
 40
0.7359676473559231
 40
0.7521278716944843
 40
0.7682877789218459
 40
0.7844475047847582
 40
0.8006071922983017
 40
0.8167670139062927
 40
0.8329272214264831
 40
0.8490881206118273
 40
0.8652500758714992
 40
0.8814135133406145
 40
0.897578921249413
 40
0.9137468462905448
 40
0.9299178844737473
 40
0.9460926648690787
 40
0.9622718247771983
 40
0.9784559753533166
 40
0.994645657672342
 40
1.0
 40
1.0
 40
1.0
 40
1.0
 10
1032.225303100744
 20
-548.5568561994907
 30
0.0
 10
1032.21910475346
 20
-549.8718474582175
 30
0.0
 10
1032.201123740454
 20
-553.6865538380216
 30
0.0
 10
1032.001278071335
 20
-560.097565727078
 30
0.0
 10
1031.55274702626
 20
-567.820846862668
 30
0.0
 10
1030.879196412936
 20
-575.6529800177624
 30
0.0
 10
1029.985201488596
 20
-583.5822893692139
 30
0.0
 10
1028.870741658274
 20
-591.5999783922338
 30
0.0
 10
1027.537362540298
 20
-599.6963648482888
 30
0.0
 10
1025.986524938156
 20
-607.8618769571577
 30
0.0
 10
1024.220045178138
 20
-616.0868020990328
 30
0.0
 10
1022.239974507966
 20
-624.3613697694784
 30
0.0
 10
1020.048628313451
 20
-632.6757449307578
 30
0.0
 10
1017.648574732881
 20
-641.0200453285262
 30
0.0
 10
1015.042633724048
 20
-649.3843523361618
 30
0.0
 10
1012.233872927603
 20
-657.7587234786067
 30
0.0
 10
1009.225604006438
 20
-666.1332044473619
 30
0.0
 10
1006.021378492049
 20
-674.4978411886783
 30
0.0
 10
1002.624983411939
 20
-682.8426919039107
 30
0.0
 10
999.0404366369854
 20
-691.1578389991661
 30
0.0
 10
995.2719819759976
 20
-699.433400967289
 30
0.0
 10
991.3240840199669
 20
-707.6595441987332
 30
0.0
 10
987.2014227443334
 20
-715.8264947133564
 30
0.0
 10
982.9088878755484
 20
-723.9245498055784
 30
0.0
 10
978.4515730283952
 20
-731.9440895945952
 30
0.0
 10
973.834769857608
 20
-739.8755880632955
 30
0.0
 10
969.0639626637403
 20
-747.7096229996463
 30
0.0
 10
964.1448209205687
 20
-755.4368891511212
 30
0.0
 10
959.0831922612103
 20
-763.048209726147
 30
0.0
 10
953.8850945241758
 20
-770.5345486483924
 30
0.0
 10
948.5567097500066
 20
-777.8870195261595
 30
0.0
 10
943.1043768798413
 20
-785.0968962862856
 30
0.0
 10
937.5345842706386
 20
-792.1556236414386
 30
0.0
 10
931.8539620319611
 20
-799.0548273815785
 30
0.0
 10
926.0692741883855
 20
-805.7863244809112
 30
0.0
 10
920.1874106708732
 20
-812.3421330117009
 30
0.0
 10
914.2153791394501
 20
-818.7144818563703
 30
0.0
 10
908.1602966383554
 20
-824.8958202091586
 30
0.0
 10
902.0293810833681
 20
-830.8788268582947
 30
0.0
 10
895.8299425793282
 20
-836.6564192389692
 30
0.0
 10
889.5693745639192
 20
-842.2217622463118
 30
0.0
 10
883.2551447715899
 20
-847.5682767959196
 30
0.0
 10
876.89478600918
 20
-852.6896481170644
 30
0.0
 10
870.4958867324088
 20
-857.5798337603367
 30
0.0
 10
864.0660814102085
 20
-862.2330712968932
 30
0.0
 10
857.6130406621191
 20
-866.6438856804455
 30
0.0
 10
851.1444611532161
 20
-870.8070962353054
 30
0.0
 10
844.668055231774
 20
-874.7178232243191
 30
0.0
 10
838.1915402984916
 20
-878.3714939380017
 30
0.0
 10
831.7226279021919
 20
-881.7638482354535
 30
0.0
 10
825.269016740588
 20
-884.8909414222195
 30
0.0
 10
818.8383831529566
 20
-887.7491485055809
 30
0.0
 10
812.4383654884318
 20
-890.3351704388122
 30
0.0
 10
806.0765482282419
 20
-892.6460384770817
 30
0.0
 10
799.7604489812122
 20
-894.6791144081184
 30
0.0
 10
793.497509265002
 20
-896.4320929678022
 30
0.0
 10
787.2950896456352
 20
-897.9029856391792
 30
0.0
 10
781.1604356505393
 20
-899.0901745163602
 30
0.0
 10
775.1007568769819
 20
-899.9921983231235
 30
0.0
 10
769.122889704372
 20
-900.6085324292168
 30
0.0
 10
763.2345229075976
 20
-900.9366534808629
 30
0.0
 10
757.4395990938899
 20
-900.9829724047627
 30
0.0
 10
751.7554736335547
 20
-900.7219896365757
 30
0.0
 10
747.4003155897657
 20
-900.3544075562096
 30
0.0
 10
744.982645216719
 20
-899.9776118464066
 30
0.0
 10
744.3817809388033
 20
-899.8839667057716
 30
0.0
  0
SPLINE
  5
1DE
330
1F
100
AcDbEntity
  8
0
  6
Continuous
 62
     7
370
    25
100
AcDbSpline
210
0.0
220
0.0
230
1.0
 70
     8
 71
     3
 72
    85
 73
    81
 74
     0
 42
0.00000001
 43
0.00000001
 40
0.0
 40
0.0
 40
0.0
 40
0.0
 40
0.0065839622676482
 40
0.0195809713107136
 40
0.0325733097159277
 40
0.0455612991068003
 40
0.058545358023444
 40
0.0715259607582138
 40
0.0845036026667955
 40
0.0974787730934631
 40
0.1104519358602552
 40
0.1234235165199026
 40
0.1363938951987485
 40
0.1493634037586594
 40
0.1623323260849478
 40
0.1753009004775852
 40
0.1882693233262638
 40
0.2012377255040465
 40
0.2142062221176285
 40
0.2271749195470303
 40
0.2401438984628195
 40
0.2531132177917134
 40
0.2660829182709402
 40
0.2790530255690419
 40
0.2920235529826266
 40
0.3049945037362319
 40
0.3179658729218707
 40
0.3309376491188183
 40
0.3439098157343232
 40
0.3568823521041164
 40
0.3698552343883398
 40
0.3828284362948662
 40
0.3958019296581
 40
0.4087756848976248
 40
0.4217496713776639
 40
0.4347238576852268
 40
0.4476982118421456
 40
0.4606727014639388
 40
0.4736472938764986
 40
0.4866219562000373
 40
0.4995966554085429
 40
0.5125713583719329
 40
0.5255460220642056
 40
0.5385206120085912
 40
0.5514950949584176
 40
0.5644694377005804
 40
0.5774436071113467
 40
0.590417570235549
 40
0.6033912943971786
 40
0.6163647473506397
 40
0.6293378974835397
 40
0.6423107140837124
 40
0.6552831676854802
 40
0.6682552305127886
 40
0.6812268770399154
 40
0.6941980846939243
 40
0.707168834726759
 40
0.7201391132889042
 40
0.733108912740341
 40
0.7460782332381157
 40
0.7590470846421438
 40
0.772015488781439
 40
0.7849834821200153
 40
0.797951118853876
 40
0.8109184744548696
 40
0.823885649650707
 40
0.8368527654997883
 40
0.8498199373720349
 40
0.8627873555003361
 40
0.875755252135231
 40
0.8887239055913098
 40
0.9016936431763237
 40
0.9146648422207974
 40
0.9276379282217955
 40
0.9406133689309787
 40
0.9535916631100546
 40
0.9665733227241449
 40
0.9795588476421219
 40
0.9925486925644065
 40
1.0
 40
1.0
 40
1.0
 40
1.0
 10
711.7047240951221
 20
-878.7494140752534
 30
0.0
 10
711.1527247965699
 20
-877.9812776937424
 30
0.0
 10
709.5110564532392
 20
-875.6968088833746
 30
0.0
 10
706.9891753414217
 20
-871.6355648615007
 30
0.0
 10
704.1314871289667
 20
-866.5890473024431
 30
0.0
 10
701.4852505067047
 20
-861.3038658177135
 30
0.0
 10
699.0408793134583
 20
-855.802170129149
 30
0.0
 10
696.8045607313489
 20
-850.086127308439
 30
0.0
 10
694.7779748188949
 20
-844.163554825517
 30
0.0
 10
692.9637248722266
 20
-838.041056257978
 30
0.0
 10
691.3638791093422
 20
-831.7258591237709
 30
0.0
 10
689.9803556492819
 20
-825.2253197902461
 30
0.0
 10
688.8148127629719
 20
-818.5470509564524
 30
0.0
 10
687.8686713358811
 20
-811.6988801269524
 30
0.0
 10
687.1431021245363
 20
-804.6888513601173
 30
0.0
 10
686.6390230234093
 20
-797.5252137388572
 30
0.0
 10
686.3570946610075
 20
-790.2164172953318
 30
0.0
 10
686.2977163190243
 20
-782.7710992992342
 30
0.0
 10
686.461023088351
 20
-775.1980692181753
 30
0.0
 10
686.8468848746398
 20
-767.5062913401597
 30
0.0
 10
687.4549059957726
 20
-759.7048759747902
 30
0.0
 10
688.2844246746043
 20
-751.8030714015575
 30
0.0
 10
689.3345131106909
 20
-743.8102516219233
 30
0.0
 10
690.6039781112163
 20
-735.7359040458986
 30
0.0
 10
692.091362230443
 20
-727.58961715364
 30
0.0
 10
693.7949453724979
 20
-719.3810681581116
 30
0.0
 10
695.7127468180068
 20
-711.120010685736
 30
0.0
 10
697.84252764091
 20
-702.8162624856487
 30
0.0
 10
700.1817934871644
 20
-694.4796931742111
 30
0.0
 10
702.7277976917726
 20
-686.1202120192044
 30
0.0
 10
705.4775447146045
 20
-677.7477557670337
 30
0.0
 10
708.4277938788038
 20
-669.3722765160398
 30
0.0
 10
711.5750633982323
 20
-661.0037296392693
 30
0.0
 10
714.915634682518
 20
-652.6520617606418
 30
0.0
 10
718.4455569098658
 20
-644.3271987891891
 30
0.0
 10
722.1606518590118
 20
-636.0390340168298
 30
0.0
 10
726.0565189925649
 20
-627.7974162859248
 30
0.0
 10
730.1285407846099
 20
-619.6121382335799
 30
0.0
 10
734.3718882858503
 20
-611.4929246203033
 30
0.0
 10
738.7815269198767
 20
-603.4494207511043
 30
0.0
 10
743.3522225041644
 20
-595.4911809977826
 30
0.0
 10
748.0785462972625
 20
-587.6276594151443
 30
0.0
 10
752.9548823185316
 20
-579.8681966359159
 30
0.0
 10
757.9754341638476
 20
-572.2220084518206
 30
0.0
 10
763.1342332397023
 20
-564.6981729495579
 30
0.0
 10
768.4251448042332
 20
-557.3056214267489
 30
0.0
 10
773.8418750593527
 20
-550.0531279571678
 30
0.0
 10
779.3779785824175
 20
-542.949298873714
 30
0.0
 10
785.0268659376843
 20
-536.0025624246
 30
0.0
 10
790.7818114632593
 20
-529.2211586115128
 30
0.0
 10
796.6359612299719
 20
-522.6131292183995
 30
0.0
 10
802.5823411695123
 20
-516.1863080394551
 30
0.0
 10
808.613865370303
 20
-509.9483113149695
 30
0.0
 10
814.723344540942
 20
-503.9065283839645
 30
0.0
 10
820.9034946426797
 20
-498.0681125630969
 30
0.0
 10
827.1469456942685
 20
-492.4399722622571
 30
0.0
 10
833.446250754645
 20
-487.0287623487569
 30
0.0
 10
839.7938950911927
 20
-481.8408757741875
 30
0.0
 10
846.1823055437311
 20
-476.8824354810836
 30
0.0
 10
852.6038600966369
 20
-472.1592866107537
 30
0.0
 10
859.0508976734516
 20
-467.6769890391954
 30
0.0
 10
865.5157281694013
 20
-463.4408102753104
 30
0.0
 10
871.9906427370829
 20
-459.4557187645905
 30
0.0
 10
878.4679243378058
 20
-455.7263776531291
 30
0.0
 10
884.9398585661625
 20
-452.257139077907
 30
0.0
 10
891.3987431991264
 20
-449.0520398369405
 30
0.0
 10
897.8368929599621
 20
-446.1147996482339
 30
0.0
 10
904.2466571738006
 20
-443.4488132715678
 30
0.0
 10
910.6204330150227
 20
-441.0571467231779
 30
0.0
 10
916.9506832888242
 20
-438.9425344927103
 30
0.0
 10
923.2299430535189
 20
-437.1073791350626
 30
0.0
 10
929.4508268435211
 20
-435.5537619358086
 30
0.0
 10
935.606054797486
 20
-434.2834078577407
 30
0.0
 10
941.6884046580706
 20
-433.2978274782246
 30
0.0
 10
947.6909349602896
 20
-432.5978042944653
 30
0.0
 10
953.6061880944088
 20
-432.1853309164879
 30
0.0
 10
959.4291917435188
 20
-432.0564060720749
 30
0.0
 10
965.1462669969299
 20
-432.2279531458196
 30
0.0
 10
969.9759062429805
 20
-432.5791028773824
 30
0.0
 10
972.8500970986073
 20
-432.9880018313002
 30
0.0
 10
973.8978110101762
 20
-433.1370556499103
 30
0.0
  0
SPLINE
  5
1DF
330
1F
100
AcDbEntity
  8
0
  6
Continuous
 62
     7
370
    25
100
AcDbSpline
210
0.0
220
0.0
230
1.0
 70
     8
 71
     3
 72
    13
 73
     9
 74
     0
 42
0.00000001
 43
0.00000001
 40
0.0
 40
0.0
 40
0.0
 40
0.0
 40
0.0884811926552271
 40
0.3131877944236398
 40
0.5300342937927655
 40
0.7392297751211743
 40
0.9449828409040636
 40
1.0
 40
1.0
 40
1.0
 40
1.0
 10
1028.102662016621
 20
-693.0625702316726
 30
0.0
 10
1028.224470856451
 20
-693.1334626144777
 30
0.0
 10
1028.655625102264
 20
-693.3843931042902
 30
0.0
 10
1029.230516724895
 20
-694.0916313889169
 30
0.0
 10
1029.809279665815
 20
-695.179427144512
 30
0.0
 10
1030.176059891735
 20
-696.4997162891035
 30
0.0
 10
1030.303730724712
 20
-697.6299418059328
 30
0.0
 10
1030.311194285477
 20
-698.3035267028513
 30
0.0
 10
1030.312768943436
 20
-698.4456392751573
 30
0.0
  0
SPLINE
  5
1E0
330
1F
100
AcDbEntity
  8
0
  6
Continuous
 62
     7
370
    25
100
AcDbSpline
210
0.0
220
0.0
230
1.0
 70
     8
 71
     3
 72
    23
 73
    19
 74
     0
 42
0.00000001
 43
0.00000001
 40
0.0
 40
0.0
 40
0.0
 40
0.0
 40
0.0335894183173927
 40
0.0980090686472836
 40
0.1626136377275899
 40
0.2273772989805949
 40
0.2922707044179453
 40
0.3572397387519355
 40
0.422222065524265
 40
0.4871348730787571
 40
0.5519085973445729
 40
0.6164811775628571
 40
0.6808078259985135
 40
0.7448964574291763
 40
0.8088825689858208
 40
0.8730223831884546
 40
0.9380494480027906
 40
1.0
 40
1.0
 40
1.0
 40
1.0
 10
1030.312768943436
 20
-698.4456392751573
 30
0.0
 10
1030.307042132642
 20
-698.7273700879379
 30
0.0
 10
1030.290332126325
 20
-699.5494198867447
 30
0.0
 10
1030.101727154356
 20
-701.0105296543267
 30
0.0
 10
1029.677104271518
 20
-702.8206145949218
 30
0.0
 10
1029.046196438413
 20
-704.6684026544285
 30
0.0
 10
1028.226255685487
 20
-706.5044785344934
 30
0.0
 10
1027.235603847987
 20
-708.2832935701974
 30
0.0
 10
1026.099093199115
 20
-709.9596651072952
 30
0.0
 10
1024.845888601866
 20
-711.4914861782744
 30
0.0
 10
1023.50915802654
 20
-712.8407680345855
 30
0.0
 10
1022.125087245964
 20
-713.9750577355321
 30
0.0
 10
1020.731907451151
 20
-714.8688922610929
 30
0.0
 10
1019.368912291727
 20
-715.5045265727182
 30
0.0
 10
1018.073265387716
 20
-715.8758860310907
 30
0.0
 10
1016.881355551469
 20
-715.9789321466656
 30
0.0
 10
1015.826479501892
 20
-715.852233943802
 30
0.0
 10
1015.246140096599
 20
-715.5720713387736
 30
0.0
 10
1014.963000852011
 20
-715.4353840354023
 30
0.0
  0
SPLINE
  5
1E1
330
1F
100
AcDbEntity
  8
0
  6
Continuous
 62
     7
370
    25
100
AcDbSpline
210
0.0
220
0.0
230
1.0
 70
     8
 71
     3
 72
    13
 73
     9
 74
     0
 42
0.00000001
 43
0.00000001
 40
0.0
 40
0.0
 40
0.0
 40
0.0
 40
0.0884811926551865
 40
0.3131877944236407
 40
0.5300342937927995
 40
0.7392297751211636
 40
0.944982840904089
 40
1.0
 40
1.0
 40
1.0
 40
1.0
 10
979.6079778541367
 20
-777.0578268515746
 30
0.0
 10
979.7297866939672
 20
-777.1287192343797
 30
0.0
 10
980.1609409397797
 20
-777.3796497241922
 30
0.0
 10
980.7358325624111
 20
-778.0868880088188
 30
0.0
 10
981.3145955033317
 20
-779.174683764414
 30
0.0
 10
981.6813757292513
 20
-780.4949729090055
 30
0.0
 10
981.8090465622275
 20
-781.6251984258349
 30
0.0
 10
981.8165101229931
 20
-782.2987833227533
 30
0.0
 10
981.818084780952
 20
-782.4408958950593
 30
0.0
  0
SPLINE
  5
1E2
330
1F
100
AcDbEntity
  8
0
  6
Continuous
 62
     7
370
    25
100
AcDbSpline
210
0.0
220
0.0
230
1.0
 70
     8
 71
     3
 72
    23
 73
    19
 74
     0
 42
0.00000001
 43
0.00000001
 40
0.0
 40
0.0
 40
0.0
 40
0.0
 40
0.0335894183173939
 40
0.0980090686472637
 40
0.1626136377275703
 40
0.2273772989805811
 40
0.2922707044179143
 40
0.3572397387519015
 40
0.4222220655242458
 40
0.4871348730787423
 40
0.5519085973445624
 40
0.6164811775628445
 40
0.6808078259984928
 40
0.7448964574291514
 40
0.8088825689857806
 40
0.8730223831884212
 40
0.938049448002763
 40
1.0
 40
1.0
 40
1.0
 40
1.0
 10
981.818084780952
 20
-782.4408958950593
 30
0.0
 10
981.8123579701579
 20
-782.7226267078397
 30
0.0
 10
981.7956479638415
 20
-783.5446765066465
 30
0.0
 10
981.6070429918718
 20
-785.0057862742283
 30
0.0
 10
981.182420109034
 20
-786.8158712148233
 30
0.0
 10
980.5515122759291
 20
-788.6636592743298
 30
0.0
 10
979.7315715230035
 20
-790.4997351543946
 30
0.0
 10
978.7409196855035
 20
-792.2785501900986
 30
0.0
 10
977.6044090366313
 20
-793.9549217271966
 30
0.0
 10
976.3512044393823
 20
-795.4867427981759
 30
0.0
 10
975.0144738640569
 20
-796.8360246544872
 30
0.0
 10
973.6304030834807
 20
-797.9703143554337
 30
0.0
 10
972.2372232886676
 20
-798.8641488809947
 30
0.0
 10
970.8742281292439
 20
-799.49978319262
 30
0.0
 10
969.5785812252325
 20
-799.8711426509925
 30
0.0
 10
968.3866713889865
 20
-799.9741887665675
 30
0.0
 10
967.3317953394089
 20
-799.8474905637041
 30
0.0
 10
966.7514559341157
 20
-799.5673279586757
 30
0.0
 10
966.4683166895273
 20
-799.4306406553045
 30
0.0
  0
SPLINE
  5
1E3
330
1F
100
AcDbEntity
  8
0
  6
Continuous
 62
     7
370
    25
100
AcDbSpline
210
0.0
220
0.0
230
1.0
 70
     8
 71
     3
 72
    13
 73
     9
 74
     0
 42
0.00000001
 43
0.00000001
 40
0.0
 40
0.0
 40
0.0
 40
0.0
 40
0.0884811926552704
 40
0.3131877944236772
 40
0.5300342937928452
 40
0.7392297751212265
 40
0.9449828409041264
 40
1.0
 40
1.0
 40
1.0
 40
1.0
 10
1059.238165851976
 20
-604.5244719670558
 30
0.0
 10
1059.359974691806
 20
-604.5953643498609
 30
0.0
 10
1059.791128937619
 20
-604.8462948396734
 30
0.0
 10
1060.36602056025
 20
-605.5535331243003
 30
0.0
 10
1060.944783501171
 20
-606.6413288798956
 30
0.0
 10
1061.31156372709
 20
-607.961618024487
 30
0.0
 10
1061.439234560067
 20
-609.0918435413163
 30
0.0
 10
1061.446698120832
 20
-609.7654284382345
 30
0.0
 10
1061.448272778791
 20
-609.9075410105404
 30
0.0
  0
SPLINE
  5
1E4
330
1F
100
AcDbEntity
  8
0
  6
Continuous
 62
     7
370
    25
100
AcDbSpline
210
0.0
220
0.0
230
1.0
 70
     8
 71
     3
 72
    23
 73
    19
 74
     0
 42
0.00000001
 43
0.00000001
 40
0.0
 40
0.0
 40
0.0
 40
0.0
 40
0.0335894183173928
 40
0.0980090686472836
 40
0.162613637727591
 40
0.2273772989805975
 40
0.2922707044179372
 40
0.3572397387519302
 40
0.4222220655242686
 40
0.4871348730787626
 40
0.5519085973445804
 40
0.6164811775628595
 40
0.6808078259985144
 40
0.7448964574291741
 40
0.8088825689858117
 40
0.8730223831884438
 40
0.9380494480027811
 40
1.0
 40
1.0
 40
1.0
 40
1.0
 10
1061.448272778791
 20
-609.9075410105404
 30
0.0
 10
1061.442545967997
 20
-610.1892718233208
 30
0.0
 10
1061.42583596168
 20
-611.0113216221278
 30
0.0
 10
1061.237230989711
 20
-612.4724313897096
 30
0.0
 10
1060.812608106873
 20
-614.2825163303049
 30
0.0
 10
1060.181700273768
 20
-616.1303043898114
 30
0.0
 10
1059.361759520842
 20
-617.9663802698764
 30
0.0
 10
1058.371107683342
 20
-619.7451953055805
 30
0.0
 10
1057.23459703447
 20
-621.4215668426782
 30
0.0
 10
1055.981392437221
 20
-622.9533879136575
 30
0.0
 10
1054.644661861895
 20
-624.3026697699686
 30
0.0
 10
1053.260591081319
 20
-625.4369594709151
 30
0.0
 10
1051.867411286506
 20
-626.330793996476
 30
0.0
 10
1050.504416127082
 20
-626.9664283081013
 30
0.0
 10
1049.208769223071
 20
-627.3377877664738
 30
0.0
 10
1048.016859386825
 20
-627.4408338820487
 30
0.0
 10
1046.961983337248
 20
-627.314135679185
 30
0.0
 10
1046.381643931955
 20
-627.0339730741567
 30
0.0
 10
1046.098504687366
 20
-626.8972857707854
 30
0.0
  0
SPLINE
  5
1E5
330
1F
100
AcDbEntity
  8
0
  6
Continuous
 62
     7
370
    25
100
AcDbSpline
210
0.0
220
0.0
230
1.0
 70
     8
 71
     3
 72
    13
 73
     9
 74
     0
 42
0.00000001
 43
0.00000001
 40
0.0
 40
0.0
 40
0.0
 40
0.0
 40
0.0884811926552425
 40
0.3131877944236643
 40
0.5300342937928282
 40
0.739229775121202
 40
0.9449828409040999
 40
1.0
 40
1.0
 40
1.0
 40
1.0
 10
918.5011109326805
 20
-848.2882008794405
 30
0.0
 10
918.6229197725111
 20
-848.3590932622456
 30
0.0
 10
919.0540740183236
 20
-848.6100237520582
 30
0.0
 10
919.628965640955
 20
-849.317262036685
 30
0.0
 10
920.2077285818755
 20
-850.4050577922801
 30
0.0
 10
920.5745088077952
 20
-851.7253469368716
 30
0.0
 10
920.7021796407713
 20
-852.8555724537008
 30
0.0
 10
920.7096432015369
 20
-853.5291573506191
 30
0.0
 10
920.7112178594958
 20
-853.6712699229251
 30
0.0
  0
SPLINE
  5
1E6
330
1F
100
AcDbEntity
  8
0
  6
Continuous
 62
     7
370
    25
100
AcDbSpline
210
0.0
220
0.0
230
1.0
 70
     8
 71
     3
 72
    23
 73
    19
 74
     0
 42
0.00000001
 43
0.00000001
 40
0.0
 40
0.0
 40
0.0
 40
0.0
 40
0.033589418317394
 40
0.098009068647264
 40
0.1626136377275724
 40
0.2273772989805845
 40
0.2922707044179091
 40
0.3572397387519112
 40
0.422222065524241
 40
0.4871348730787365
 40
0.5519085973445426
 40
0.6164811775628359
 40
0.6808078259984942
 40
0.7448964574291507
 40
0.8088825689857779
 40
0.8730223831884178
 40
0.9380494480027575
 40
0.9999999999999999
 40
0.9999999999999999
 40
0.9999999999999999
 40
0.9999999999999999
 10
920.7112178594958
 20
-853.6712699229251
 30
0.0
 10
920.7054910487017
 20
-853.9530007357057
 30
0.0
 10
920.6887810423851
 20
-854.7750505345124
 30
0.0
 10
920.5001760704156
 20
-856.236160302094
 30
0.0
 10
920.075553187578
 20
-858.0462452426891
 30
0.0
 10
919.4446453544728
 20
-859.8940333021956
 30
0.0
 10
918.6247046015473
 20
-861.7301091822604
 30
0.0
 10
917.6340527640473
 20
-863.5089242179645
 30
0.0
 10
916.4975421151751
 20
-865.1852957550624
 30
0.0
 10
915.2443375179264
 20
-866.7171168260414
 30
0.0
 10
913.9076069426009
 20
-868.0663986823528
 30
0.0
 10
912.5235361620247
 20
-869.2006883832994
 30
0.0
 10
911.1303563672114
 20
-870.0945229088604
 30
0.0
 10
909.7673612077876
 20
-870.7301572204857
 30
0.0
 10
908.4717143037763
 20
-871.1015166788583
 30
0.0
 10
907.2798044675304
 20
-871.2045627944334
 30
0.0
 10
906.2249284179529
 20
-871.07786459157
 30
0.0
 10
905.6445890126596
 20
-870.7977019865416
 30
0.0
 10
905.3614497680711
 20
-870.6610146831703
 30
0.0
  0
SPLINE
  5
1E7
330
1F
100
AcDbEntity
  8
0
  6
Continuous
 62
     7
370
    25
100
AcDbSpline
210
0.0
220
0.0
230
1.0
 70
     8
 71
     3
 72
    13
 73
     9
 74
     0
 42
0.00000001
 43
0.00000001
 40
0.0
 40
0.0
 40
0.0
 40
0.0
 40
0.0884811926552542
 40
0.3131877944237117
 40
0.5300342937928854
 40
0.7392297751212323
 40
0.9449828409041683
 40
1.0
 40
1.0
 40
1.0
 40
1.0
 10
1069.966729310986
 20
-520.1102579970685
 30
0.0
 10
1070.088538150817
 20
-520.1811503798737
 30
0.0
 10
1070.519692396629
 20
-520.4320808696863
 30
0.0
 10
1071.094584019261
 20
-521.1393191543131
 30
0.0
 10
1071.673346960181
 20
-522.2271149099084
 30
0.0
 10
1072.040127186101
 20
-523.5474040544999
 30
0.0
 10
1072.167798019077
 20
-524.6776295713291
 30
0.0
 10
1072.175261579843
 20
-525.3512144682473
 30
0.0
 10
1072.176836237802
 20
-525.4933270405533
 30
0.0
  0
SPLINE
  5
1E8
330
1F
100
AcDbEntity
  8
0
  6
Continuous
 62
     7
370
    25
100
AcDbSpline
210
0.0
220
0.0
230
1.0
 70
     8
 71
     3
 72
    23
 73
    19
 74
     0
 42
0.00000001
 43
0.00000001
 40
0.0
 40
0.0
 40
0.0
 40
0.0
 40
0.0335894183173928
 40
0.0980090686472838
 40
0.1626136377275914
 40
0.2273772989805979
 40
0.2922707044179374
 40
0.35723973875193
 40
0.4222220655242648
 40
0.4871348730787536
 40
0.5519085973445718
 40
0.6164811775628548
 40
0.6808078259985081
 40
0.7448964574291694
 40
0.808882568985805
 40
0.8730223831884404
 40
0.9380494480027801
 40
1.0
 40
1.0
 40
1.0
 40
1.0
 10
1072.176836237802
 20
-525.4933270405533
 30
0.0
 10
1072.171109427007
 20
-525.7750578533337
 30
0.0
 10
1072.154399420691
 20
-526.5971076521406
 30
0.0
 10
1071.965794448721
 20
-528.0582174197224
 30
0.0
 10
1071.541171565883
 20
-529.8683023603177
 30
0.0
 10
1070.910263732778
 20
-531.7160904198242
 30
0.0
 10
1070.090322979853
 20
-533.5521662998891
 30
0.0
 10
1069.099671142353
 20
-535.3309813355932
 30
0.0
 10
1067.96316049348
 20
-537.0073528726911
 30
0.0
 10
1066.709955896232
 20
-538.5391739436702
 30
0.0
 10
1065.373225320906
 20
-539.8884557999812
 30
0.0
 10
1063.98915454033
 20
-541.0227455009278
 30
0.0
 10
1062.595974745517
 20
-541.9165800264886
 30
0.0
 10
1061.232979586093
 20
-542.552214338114
 30
0.0
 10
1059.937332682082
 20
-542.9235737964865
 30
0.0
 10
1058.745422845835
 20
-543.0266199120615
 30
0.0
 10
1057.690546796258
 20
-542.8999217091979
 30
0.0
 10
1057.110207390965
 20
-542.6197591041695
 30
0.0
 10
1056.827068146377
 20
-542.4830718007983
 30
0.0
  0
SPLINE
  5
1E9
330
1F
100
AcDbEntity
  8
0
  6
Continuous
 62
     7
370
    25
100
AcDbSpline
210
0.0
220
0.0
230
1.0
 70
     8
 71
     3
 72
    13
 73
     9
 74
     0
 42
0.00000001
 43
0.00000001
 40
0.0
 40
0.0
 40
0.0
 40
0.0
 40
0.0884811926553153
 40
0.3131877944237618
 40
0.5300342937929176
 40
0.7392297751212978
 40
0.9449828409042226
 40
0.9999999999999999
 40
0.9999999999999999
 40
0.9999999999999999
 40
0.9999999999999999
 10
850.7636271431011
 20
-899.7811670142244
 30
0.0
 10
850.8854359829318
 20
-899.8520593970296
 30
0.0
 10
851.3165902287443
 20
-900.1029898868422
 30
0.0
 10
851.8914818513758
 20
-900.8102281714691
 30
0.0
 10
852.4702447922963
 20
-901.8980239270645
 30
0.0
 10
852.8370250182156
 20
-903.2183130716561
 30
0.0
 10
852.9646958511919
 20
-904.3485385884853
 30
0.0
 10
852.9721594119574
 20
-905.0221234854032
 30
0.0
 10
852.9737340699163
 20
-905.164236057709
 30
0.0
  0
SPLINE
  5
1EA
330
1F
100
AcDbEntity
  8
0
  6
Continuous
 62
     7
370
    25
100
AcDbSpline
210
0.0
220
0.0
230
1.0
 70
     8
 71
     3
 72
    23
 73
    19
 74
     0
 42
0.00000001
 43
0.00000001
 40
0.0
 40
0.0
 40
0.0
 40
0.0
 40
0.0335894183173939
 40
0.098009068647269
 40
0.1626136377275755
 40
0.2273772989805876
 40
0.2922707044179109
 40
0.3572397387519118
 40
0.4222220655242538
 40
0.4871348730787465
 40
0.5519085973445659
 40
0.6164811775628367
 40
0.6808078259984958
 40
0.7448964574291642
 40
0.808882568985804
 40
0.8730223831884318
 40
0.9380494480027854
 40
1.0
 40
1.0
 40
1.0
 40
1.0
 10
852.9737340699163
 20
-905.164236057709
 30
0.0
 10
852.9680072591221
 20
-905.4459668704895
 30
0.0
 10
852.9512972528057
 20
-906.2680166692963
 30
0.0
 10
852.7626922808361
 20
-907.7291264368781
 30
0.0
 10
852.3380693979984
 20
-909.539211377473
 30
0.0
 10
851.7071615648932
 20
-911.3869994369796
 30
0.0
 10
850.8872208119676
 20
-913.2230753170443
 30
0.0
 10
849.8965689744676
 20
-915.0018903527484
 30
0.0
 10
848.7600583255954
 20
-916.6782618898463
 30
0.0
 10
847.5068537283465
 20
-918.2100829608258
 30
0.0
 10
846.1701231530211
 20
-919.5593648171367
 30
0.0
 10
844.7860523724449
 20
-920.6936545180833
 30
0.0
 10
843.3928725776317
 20
-921.5874890436444
 30
0.0
 10
842.0298774182078
 20
-922.2231233552698
 30
0.0
 10
840.7342305141964
 20
-922.5944828136421
 30
0.0
 10
839.5423206779504
 20
-922.6975289292174
 30
0.0
 10
838.4874446283729
 20
-922.5708307263537
 30
0.0
 10
837.9071052230798
 20
-922.2906681213253
 30
0.0
 10
837.6239659784917
 20
-922.153980817954
 30
0.0
  0
SPLINE
  5
1EB
330
1F
100
AcDbEntity
  8
0
  6
Continuous
 62
     7
370
    25
100
AcDbSpline
210
0.0
220
0.0
230
1.0
 70
     8
 71
     3
 72
    13
 73
     9
 74
     0
 42
0.00000001
 43
0.00000001
 40
0.0
 40
0.0
 40
0.0
 40
0.0
 40
0.0884811926552336
 40
0.3131877944237071
 40
0.5300342937929016
 40
0.7392297751212272
 40
0.9449828409041791
 40
1.0
 40
1.0
 40
1.0
 40
1.0
 10
1059.238165851987
 20
-448.0829797335061
 30
0.0
 10
1059.359974691818
 20
-448.1538721163112
 30
0.0
 10
1059.79112893763
 20
-448.4048026061238
 30
0.0
 10
1060.366020560262
 20
-449.1120408907507
 30
0.0
 10
1060.944783501183
 20
-450.1998366463459
 30
0.0
 10
1061.311563727102
 20
-451.5201257909375
 30
0.0
 10
1061.439234560078
 20
-452.6503513077668
 30
0.0
 10
1061.446698120844
 20
-453.3239362046849
 30
0.0
 10
1061.448272778803
 20
-453.4660487769907
 30
0.0
  0
SPLINE
  5
1EC
330
1F
100
AcDbEntity
  8
0
  6
Continuous
 62
     7
370
    25
100
AcDbSpline
210
0.0
220
0.0
230
1.0
 70
     8
 71
     3
 72
    23
 73
    19
 74
     0
 42
0.00000001
 43
0.00000001
 40
0.0
 40
0.0
 40
0.0
 40
0.0
 40
0.0335894183173929
 40
0.0980090686472837
 40
0.1626136377275912
 40
0.2273772989805978
 40
0.2922707044179376
 40
0.3572397387519307
 40
0.4222220655242692
 40
0.4871348730787632
 40
0.5519085973445812
 40
0.6164811775628604
 40
0.6808078259985153
 40
0.7448964574291768
 40
0.8088825689858109
 40
0.8730223831884452
 40
0.9380494480027844
 40
1.0
 40
1.0
 40
1.0
 40
1.0
 10
1061.448272778803
 20
-453.4660487769907
 30
0.0
 10
1061.442545968008
 20
-453.7477795897712
 30
0.0
 10
1061.425835961692
 20
-454.5698293885782
 30
0.0
 10
1061.237230989723
 20
-456.0309391561599
 30
0.0
 10
1060.812608106884
 20
-457.8410240967552
 30
0.0
 10
1060.181700273779
 20
-459.6888121562617
 30
0.0
 10
1059.361759520854
 20
-461.5248880363266
 30
0.0
 10
1058.371107683354
 20
-463.3037030720308
 30
0.0
 10
1057.234597034481
 20
-464.9800746091286
 30
0.0
 10
1055.981392437232
 20
-466.5118956801078
 30
0.0
 10
1054.644661861907
 20
-467.861177536419
 30
0.0
 10
1053.260591081331
 20
-468.9954672373655
 30
0.0
 10
1051.867411286518
 20
-469.8893017629263
 30
0.0
 10
1050.504416127094
 20
-470.5249360745516
 30
0.0
 10
1049.208769223083
 20
-470.896295532924
 30
0.0
 10
1048.016859386837
 20
-470.9993416484989
 30
0.0
 10
1046.961983337259
 20
-470.8726434456354
 30
0.0
 10
1046.381643931966
 20
-470.592480840607
 30
0.0
 10
1046.098504687378
 20
-470.4557935372358
 30
0.0
  0
SPLINE
  5
1ED
330
1F
100
AcDbEntity
  8
0
  6
Continuous
 62
     7
370
    25
100
AcDbSpline
210
0.0
220
0.0
230
1.0
 70
     8
 71
     3
 72
    13
 73
     9
 74
     0
 42
0.00000001
 43
0.00000001
 40
0.0
 40
0.0
 40
0.0
 40
0.0
 40
0.0884811926552462
 40
0.3131877944236671
 40
0.5300342937928301
 40
0.7392297751212031
 40
0.9449828409041001
 40
1.0
 40
1.0
 40
1.0
 40
1.0
 10
783.0261433535233
 20
-926.496234958062
 30
0.0
 10
783.1479521933538
 20
-926.567127340867
 30
0.0
 10
783.5791064391664
 20
-926.8180578306797
 30
0.0
 10
784.1539980617979
 20
-927.5252961153064
 30
0.0
 10
784.7327610027183
 20
-928.6130918709017
 30
0.0
 10
785.0995412286379
 20
-929.9333810154932
 30
0.0
 10
785.2272120616142
 20
-931.0636065323224
 30
0.0
 10
785.2346756223797
 20
-931.7371914292407
 30
0.0
 10
785.2362502803386
 20
-931.8793040015468
 30
0.0
  0
SPLINE
  5
1EE
330
1F
100
AcDbEntity
  8
0
  6
Continuous
 62
     7
370
    25
100
AcDbSpline
210
0.0
220
0.0
230
1.0
 70
     8
 71
     3
 72
    23
 73
    19
 74
     0
 42
0.00000001
 43
0.00000001
 40
0.0
 40
0.0
 40
0.0
 40
0.0
 40
0.0335894183173939
 40
0.0980090686472638
 40
0.1626136377275721
 40
0.2273772989805842
 40
0.2922707044179087
 40
0.3572397387519107
 40
0.4222220655242405
 40
0.4871348730787359
 40
0.5519085973445419
 40
0.6164811775628352
 40
0.6808078259984933
 40
0.7448964574291498
 40
0.8088825689857768
 40
0.8730223831884167
 40
0.9380494480027562
 40
1.0
 40
1.0
 40
1.0
 40
1.0
 10
785.2362502803386
 20
-931.8793040015468
 30
0.0
 10
785.2305234695444
 20
-932.1610348143272
 30
0.0
 10
785.213813463228
 20
-932.9830846131339
 30
0.0
 10
785.0252084912584
 20
-934.4441943807157
 30
0.0
 10
784.6005856084208
 20
-936.2542793213107
 30
0.0
 10
783.9696777753155
 20
-938.1020673808173
 30
0.0
 10
783.1497370223901
 20
-939.938143260882
 30
0.0
 10
782.15908518489
 20
-941.7169582965861
 30
0.0
 10
781.0225745360178
 20
-943.3933298336841
 30
0.0
 10
779.7693699387693
 20
-944.925150904663
 30
0.0
 10
778.4326393634437
 20
-946.2744327609745
 30
0.0
 10
777.0485685828677
 20
-947.408722461921
 30
0.0
 10
775.6553887880542
 20
-948.3025569874821
 30
0.0
 10
774.2923936286304
 20
-948.9381912991073
 30
0.0
 10
772.9967467246191
 20
-949.3095507574798
 30
0.0
 10
771.8048368883732
 20
-949.412596873055
 30
0.0
 10
770.7499608387957
 20
-949.2858986701915
 30
0.0
 10
770.1696214335025
 20
-949.0057360651631
 30
0.0
 10
769.886482188914
 20
-948.8690487617918
 30
0.0
  0
SPLINE
  5
1EF
330
1F
100
AcDbEntity
  8
0
  6
Continuous
 62
     7
370
    25
100
AcDbSpline
210
0.0
220
0.0
230
1.0
 70
     8
 71
     3
 72
    13
 73
     9
 74
     0
 42
0.00000001
 43
0.00000001
 40
0.0
 40
0.0
 40
0.0
 40
0.0
 40
0.088481192655306
 40
0.3131877944237536
 40
0.5300342937929327
 40
0.7392297751212856
 40
0.9449828409042662
 40
1.0
 40
1.0
 40
1.0
 40
1.0
 10
1028.102662016643
 20
-395.4931690163628
 30
0.0
 10
1028.224470856474
 20
-395.5640613991679
 30
0.0
 10
1028.655625102286
 20
-395.8149918889803
 30
0.0
 10
1029.230516724918
 20
-396.5222301736078
 30
0.0
 10
1029.809279665838
 20
-397.6100259292027
 30
0.0
 10
1030.176059891757
 20
-398.9303150737946
 30
0.0
 10
1030.303730724734
 20
-400.0605405906235
 30
0.0
 10
1030.311194285499
 20
-400.7341254875417
 30
0.0
 10
1030.312768943458
 20
-400.8762380598473
 30
0.0
  0
SPLINE
  5
1F0
330
1F
100
AcDbEntity
  8
0
  6
Continuous
 62
     7
370
    25
100
AcDbSpline
210
0.0
220
0.0
230
1.0
 70
     8
 71
     3
 72
    23
 73
    19
 74
     0
 42
0.00000001
 43
0.00000001
 40
0.0
 40
0.0
 40
0.0
 40
0.0
 40
0.0335894183173924
 40
0.0980090686473238
 40
0.1626136377276254
 40
0.2273772989806377
 40
0.2922707044179697
 40
0.3572397387519673
 40
0.4222220655243022
 40
0.4871348730787979
 40
0.5519085973446146
 40
0.6164811775628916
 40
0.6808078259985507
 40
0.744896457429213
 40
0.8088825689858513
 40
0.8730223831884841
 40
0.93804944800282
 40
1.0
 40
1.0
 40
1.0
 40
1.0
 10
1030.312768943458
 20
-400.8762380598473
 30
0.0
 10
1030.307042132664
 20
-401.1579688726277
 30
0.0
 10
1030.290332126347
 20
-401.9800186714349
 30
0.0
 10
1030.101727154378
 20
-403.4411284390172
 30
0.0
 10
1029.67710427154
 20
-405.2512133796129
 30
0.0
 10
1029.046196438434
 20
-407.0990014391195
 30
0.0
 10
1028.226255685509
 20
-408.9350773191842
 30
0.0
 10
1027.235603848008
 20
-410.7138923548883
 30
0.0
 10
1026.099093199136
 20
-412.3902638919862
 30
0.0
 10
1024.845888601887
 20
-413.9220849629653
 30
0.0
 10
1023.509158026562
 20
-415.2713668192763
 30
0.0
 10
1022.125087245985
 20
-416.4056565202226
 30
0.0
 10
1020.731907451172
 20
-417.2994910457833
 30
0.0
 10
1019.368912291748
 20
-417.9351253574086
 30
0.0
 10
1018.073265387737
 20
-418.3064848157807
 30
0.0
 10
1016.881355551491
 20
-418.4095309313554
 30
0.0
 10
1015.826479501914
 20
-418.2828327284919
 30
0.0
 10
1015.246140096621
 20
-418.0026701234634
 30
0.0
 10
1014.963000852033
 20
-417.8659828200921
 30
0.0
  0
SPLINE
  5
1F1
330
1F
100
AcDbEntity
  8
0
  6
Continuous
 62
     7
370
    25
100
AcDbSpline
210
0.0
220
0.0
230
1.0
 70
     8
 71
     3
 72
    13
 73
     9
 74
     0
 42
0.00000001
 43
0.00000001
 40
0.0
 40
0.0
 40
0.0
 40
0.0
 40
0.0884811926550863
 40
0.3131877944235225
 40
0.5300342937926793
 40
0.7392297751210378
 40
0.9449828409039455
 40
1.0
 40
1.0
 40
1.0
 40
1.0
 10
721.9192764320721
 20
-925.8183477257874
 30
0.0
 10
722.0410852719026
 20
-925.8892401085923
 30
0.0
 10
722.472239517715
 20
-926.1401705984046
 30
0.0
 10
723.0471311403463
 20
-926.8474088830311
 30
0.0
 10
723.6258940812672
 20
-927.935204638626
 30
0.0
 10
723.9926743071867
 20
-929.2554937832176
 30
0.0
 10
724.1203451401633
 20
-930.3857193000472
 30
0.0
 10
724.1278087009289
 20
-931.0593041969657
 30
0.0
 10
724.1293833588878
 20
-931.2014167692722
 30
0.0
  0
SPLINE
  5
1F2
330
1F
100
AcDbEntity
  8
0
  6
Continuous
 62
     7
370
    25
100
AcDbSpline
210
0.0
220
0.0
230
1.0
 70
     8
 71
     3
 72
    23
 73
    19
 74
     0
 42
0.00000001
 43
0.00000001
 40
0.0
 40
0.0
 40
0.0
 40
0.0
 40
0.0335894183173943
 40
0.0980090686472647
 40
0.1626136377275719
 40
0.2273772989805838
 40
0.2922707044179135
 40
0.357239738751907
 40
0.4222220655242316
 40
0.4871348730787051
 40
0.5519085973445395
 40
0.6164811775628123
 40
0.6808078259984632
 40
0.7448964574291335
 40
0.8088825689857632
 40
0.8730223831883958
 40
0.9380494480027317
 40
0.9999999999999999
 40
0.9999999999999999
 40
0.9999999999999999
 40
0.9999999999999999
 10
724.1293833588878
 20
-931.2014167692722
 30
0.0
 10
724.1236565480937
 20
-931.4831475820528
 30
0.0
 10
724.1069465417771
 20
-932.3051973808595
 30
0.0
 10
723.9183415698076
 20
-933.766307148441
 30
0.0
 10
723.4937186869698
 20
-935.5763920890363
 30
0.0
 10
722.8628108538647
 20
-937.4241801485425
 30
0.0
 10
722.0428701009392
 20
-939.2602560286074
 30
0.0
 10
721.0522182634394
 20
-941.0390710643113
 30
0.0
 10
719.9157076145675
 20
-942.715442601409
 30
0.0
 10
718.6625030173187
 20
-944.2472636723882
 30
0.0
 10
717.3257724419933
 20
-945.5965455286994
 30
0.0
 10
715.9417016614173
 20
-946.7308352296462
 30
0.0
 10
714.5485218666041
 20
-947.6246697552072
 30
0.0
 10
713.1855267071802
 20
-948.2603040668328
 30
0.0
 10
711.8898798031688
 20
-948.6316635252052
 30
0.0
 10
710.6979699669229
 20
-948.7347096407805
 30
0.0
 10
709.6430939173451
 20
-948.6080114379172
 30
0.0
 10
709.0627545120518
 20
-948.3278488328888
 30
0.0
 10
708.7796152674632
 20
-948.1911615295174
 30
0.0
  0
SPLINE
  5
1F3
330
1F
100
AcDbEntity
  8
0
  6
Continuous
 62
     7
370
    25
100
AcDbSpline
210
0.0
220
0.0
230
1.0
 70
     8
 71
     3
 72
    13
 73
     9
 74
     0
 42
0.00000001
 43
0.00000001
 40
0.0
 40
0.0
 40
0.0
 40
0.0
 40
0.0884811926552758
 40
0.3131877944237271
 40
0.5300342937928924
 40
0.7392297751212947
 40
0.944982840904205
 40
1.0
 40
1.0
 40
1.0
 40
1.0
 10
979.6079778541674
 20
-367.4886829333889
 30
0.0
 10
979.729786693998
 20
-367.5595753161941
 30
0.0
 10
980.1609409398105
 20
-367.8105058060067
 30
0.0
 10
980.735832562442
 20
-368.5177440906338
 30
0.0
 10
981.3145955033624
 20
-369.605539846229
 30
0.0
 10
981.681375729282
 20
-370.9258289908206
 30
0.0
 10
981.809046562258
 20
-372.05605450765
 30
0.0
 10
981.8165101230236
 20
-372.7296394045678
 30
0.0
 10
981.8180847809825
 20
-372.8717519768735
 30
0.0
  0
SPLINE
  5
1F4
330
1F
100
AcDbEntity
  8
0
  6
Continuous
 62
     7
370
    25
100
AcDbSpline
210
0.0
220
0.0
230
1.0
 70
     8
 71
     3
 72
    23
 73
    19
 74
     0
 42
0.00000001
 43
0.00000001
 40
0.0
 40
0.0
 40
0.0
 40
0.0
 40
0.033589418317393
 40
0.0980090686472627
 40
0.1626136377275712
 40
0.2273772989805812
 40
0.2922707044179171
 40
0.3572397387519155
 40
0.422222065524253
 40
0.4871348730787498
 40
0.5519085973445648
 40
0.6164811775628491
 40
0.6808078259985054
 40
0.7448964574291651
 40
0.8088825689857968
 40
0.8730223831884342
 40
0.9380494480027702
 40
1.0
 40
1.0
 40
1.0
 40
1.0
 10
981.8180847809825
 20
-372.8717519768736
 30
0.0
 10
981.8123579701884
 20
-373.153482789654
 30
0.0
 10
981.7956479638718
 20
-373.9755325884609
 30
0.0
 10
981.6070429919023
 20
-375.4366423560423
 30
0.0
 10
981.1824201090647
 20
-377.2467272966375
 30
0.0
 10
980.5515122759593
 20
-379.0945153561441
 30
0.0
 10
979.731571523034
 20
-380.930591236209
 30
0.0
 10
978.7409196855339
 20
-382.7094062719131
 30
0.0
 10
977.6044090366615
 20
-384.385777809011
 30
0.0
 10
976.3512044394128
 20
-385.9175988799904
 30
0.0
 10
975.0144738640872
 20
-387.2668807363015
 30
0.0
 10
973.630403083511
 20
-388.4011704372481
 30
0.0
 10
972.2372232886979
 20
-389.2950049628091
 30
0.0
 10
970.874228129274
 20
-389.9306392744343
 30
0.0
 10
969.5785812252626
 20
-390.3019987328068
 30
0.0
 10
968.3866713890168
 20
-390.4050448483818
 30
0.0
 10
967.3317953394394
 20
-390.2783466455183
 30
0.0
 10
966.7514559341462
 20
-389.9981840404899
 30
0.0
 10
966.4683166895578
 20
-389.8614967371186
 30
0.0
  0
SPLINE
  5
1F5
330
1F
100
AcDbEntity
  8
0
  6
Continuous
 62
     7
370
    25
100
AcDbSpline
210
0.0
220
0.0
230
1.0
 70
     8
 71
     3
 72
    13
 73
     9
 74
     0
 42
0.00000001
 43
0.00000001
 40
0.0
 40
0.0
 40
0.0
 40
0.0
 40
0.0884811926551997
 40
0.3131877944236085
 40
0.5300342937927877
 40
0.7392297751211373
 40
0.9449828409040602
 40
1.0
 40
1.0
 40
1.0
 40
1.0
 10
673.4245922695969
 20
-897.813861642814
 30
0.0
 10
673.5464011094275
 20
-897.8847540256189
 30
0.0
 10
673.9775553552399
 20
-898.1356845154313
 30
0.0
 10
674.5524469778713
 20
-898.8429228000582
 30
0.0
 10
675.1312099187918
 20
-899.9307185556532
 30
0.0
 10
675.4979901447115
 20
-901.2510077002446
 30
0.0
 10
675.6256609776879
 20
-902.381233217074
 30
0.0
 10
675.6331245384533
 20
-903.0548181139925
 30
0.0
 10
675.6346991964123
 20
-903.1969306862986
 30
0.0
  0
SPLINE
  5
1F6
330
1F
100
AcDbEntity
  8
0
  6
Continuous
 62
     7
370
    25
100
AcDbSpline
210
0.0
220
0.0
230
1.0
 70
     8
 71
     3
 72
    23
 73
    19
 74
     0
 42
0.00000001
 43
0.00000001
 40
0.0
 40
0.0
 40
0.0
 40
0.0
 40
0.0335894183173929
 40
0.0980090686472624
 40
0.1626136377275706
 40
0.2273772989805804
 40
0.2922707044179161
 40
0.3572397387519143
 40
0.4222220655242516
 40
0.4871348730787481
 40
0.5519085973445647
 40
0.6164811775628525
 40
0.6808078259985004
 40
0.7448964574291618
 40
0.8088825689857951
 40
0.8730223831884302
 40
0.9380494480027661
 40
1.0
 40
1.0
 40
1.0
 40
1.0
 10
675.6346991964123
 20
-903.1969306862986
 30
0.0
 10
675.6289723856181
 20
-903.4786614990791
 30
0.0
 10
675.6122623793016
 20
-904.3007112978858
 30
0.0
 10
675.423657407332
 20
-905.7618210654674
 30
0.0
 10
674.9990345244943
 20
-907.5719060060626
 30
0.0
 10
674.3681266913892
 20
-909.419694065569
 30
0.0
 10
673.5481859384637
 20
-911.255769945634
 30
0.0
 10
672.5575341009636
 20
-913.0345849813382
 30
0.0
 10
671.4210234520913
 20
-914.7109565184361
 30
0.0
 10
670.1678188548425
 20
-916.2427775894154
 30
0.0
 10
668.8310882795168
 20
-917.5920594457266
 30
0.0
 10
667.4470174989409
 20
-918.7263491466733
 30
0.0
 10
666.0538377041277
 20
-919.6201836722341
 30
0.0
 10
664.6908425447037
 20
-920.2558179838594
 30
0.0
 10
663.3951956406924
 20
-920.6271774422318
 30
0.0
 10
662.2032858044465
 20
-920.7302235578068
 30
0.0
 10
661.1484097548691
 20
-920.6035253549433
 30
0.0
 10
660.568070349576
 20
-920.3233627499148
 30
0.0
 10
660.2849311049875
 20
-920.1866754465436
 30
0.0
  0
SPLINE
  5
1F7
330
1F
100
AcDbEntity
  8
0
  6
Continuous
 62
     7
370
    25
100
AcDbSpline
210
0.0
220
0.0
230
1.0
 70
     8
 71
     3
 72
    13
 73
     9
 74
     0
 42
0.00000001
 43
0.00000001
 40
0.0
 40
0.0
 40
0.0
 40
0.0
 40
0.0884811926552462
 40
0.3131877944236671
 40
0.5300342937928301
 40
0.7392297751212031
 40
0.9449828409041001
 40
1.0
 40
1.0
 40
1.0
 40
1.0
 10
918.5011109327163
 20
-366.8107957011143
 30
0.0
 10
918.622919772547
 20
-366.8816880839195
 30
0.0
 10
919.0540740183594
 20
-367.1326185737319
 30
0.0
 10
919.6289656409909
 20
-367.8398568583586
 30
0.0
 10
920.2077285819114
 20
-368.927652613954
 30
0.0
 10
920.574508807831
 20
-370.2479417585454
 30
0.0
 10
920.7021796408071
 20
-371.3781672753748
 30
0.0
 10
920.7096432015728
 20
-372.051752172293
 30
0.0
 10
920.7112178595316
 20
-372.193864744599
 30
0.0
  0
SPLINE
  5
1F8
330
1F
100
AcDbEntity
  8
0
  6
Continuous
 62
     7
370
    25
100
AcDbSpline
210
0.0
220
0.0
230
1.0
 70
     8
 71
     3
 72
    23
 73
    19
 74
     0
 42
0.00000001
 43
0.00000001
 40
0.0
 40
0.0
 40
0.0
 40
0.0
 40
0.033589418317394
 40
0.098009068647264
 40
0.1626136377275723
 40
0.2273772989805845
 40
0.292270704417909
 40
0.3572397387519111
 40
0.4222220655242409
 40
0.4871348730787364
 40
0.5519085973445425
 40
0.6164811775628358
 40
0.6808078259984941
 40
0.7448964574291506
 40
0.8088825689857777
 40
0.8730223831884176
 40
0.9380494480027574
 40
1.0
 40
1.0
 40
1.0
 40
1.0
 10
920.7112178595316
 20
-372.193864744599
 30
0.0
 10
920.7054910487376
 20
-372.4755955573794
 30
0.0
 10
920.688781042421
 20
-373.2976453561863
 30
0.0
 10
920.5001760704514
 20
-374.7587551237679
 30
0.0
 10
920.0755531876138
 20
-376.568840064363
 30
0.0
 10
919.4446453545087
 20
-378.4166281238694
 30
0.0
 10
918.6247046015832
 20
-380.2527040039344
 30
0.0
 10
917.6340527640832
 20
-382.0315190396384
 30
0.0
 10
916.497542115211
 20
-383.7078905767361
 30
0.0
 10
915.2443375179623
 20
-385.2397116477154
 30
0.0
 10
913.9076069426367
 20
-386.5889935040265
 30
0.0
 10
912.5235361620606
 20
-387.7232832049733
 30
0.0
 10
911.1303563672473
 20
-388.6171177305343
 30
0.0
 10
909.7673612078236
 20
-389.2527520421597
 30
0.0
 10
908.4717143038122
 20
-389.6241115005322
 30
0.0
 10
907.2798044675662
 20
-389.7271576161073
 30
0.0
 10
906.2249284179887
 20
-389.6004594132439
 30
0.0
 10
905.6445890126954
 20
-389.3202968082155
 30
0.0
 10
905.361449768107
 20
-389.1836095048441
 30
0.0
  0
SPLINE
  5
1F9
330
1F
100
AcDbEntity
  8
0
  6
Continuous
 62
     7
370
    25
100
AcDbSpline
210
0.0
220
0.0
230
1.0
 70
     8
 71
     3
 72
    13
 73
     9
 74
     0
 42
0.00000001
 43
0.00000001
 40
0.0
 40
0.0
 40
0.0
 40
0.0
 40
0.0884811926553029
 40
0.3131877944237853
 40
0.5300342937929468
 40
0.7392297751213223
 40
0.9449828409042513
 40
1.0
 40
1.0
 40
1.0
 40
1.0
 10
642.2890884342526
 20
-845.2240509256706
 30
0.0
 10
642.4108972740831
 20
-845.2949433084758
 30
0.0
 10
642.8420515198958
 20
-845.5458737982884
 30
0.0
 10
643.4169431425274
 20
-846.2531120829153
 30
0.0
 10
643.9957060834477
 20
-847.3409078385109
 30
0.0
 10
644.3624863093672
 20
-848.6611969831024
 30
0.0
 10
644.4901571423433
 20
-849.7914224999315
 30
0.0
 10
644.4976207031087
 20
-850.4650073968494
 30
0.0
 10
644.4991953610677
 20
-850.6071199691551
 30
0.0
  0
SPLINE
  5
1FA
330
1F
100
AcDbEntity
  8
0
  6
Continuous
 62
     7
370
    25
100
AcDbSpline
210
0.0
220
0.0
230
1.0
 70
     8
 71
     3
 72
    23
 73
    19
 74
     0
 42
0.00000001
 43
0.00000001
 40
0.0
 40
0.0
 40
0.0
 40
0.0
 40
0.0335894183173926
 40
0.0980090686473249
 40
0.1626136377276274
 40
0.2273772989806408
 40
0.2922707044179598
 40
0.3572397387519707
 40
0.4222220655242944
 40
0.4871348730787816
 40
0.5519085973446013
 40
0.6164811775628829
 40
0.6808078259985355
 40
0.744896457429197
 40
0.8088825689858317
 40
0.8730223831884673
 40
0.9380494480028069
 40
1.0
 40
1.0
 40
1.0
 40
1.0
 10
644.4991953610677
 20
-850.6071199691551
 30
0.0
 10
644.4934685502736
 20
-850.8888507819355
 30
0.0
 10
644.4767585439571
 20
-851.7109005807429
 30
0.0
 10
644.2881535719873
 20
-853.172010348325
 30
0.0
 10
643.8635306891493
 20
-854.9820952889206
 30
0.0
 10
643.2326228560439
 20
-856.8298833484272
 30
0.0
 10
642.4126821031184
 20
-858.6659592284919
 30
0.0
 10
641.4220302656182
 20
-860.444774264196
 30
0.0
 10
640.2855196167459
 20
-862.1211458012938
 30
0.0
 10
639.0323150194971
 20
-863.6529668722728
 30
0.0
 10
637.6955844441716
 20
-865.0022487285838
 30
0.0
 10
636.3115136635954
 20
-866.1365384295303
 30
0.0
 10
634.9183338687822
 20
-867.030372955091
 30
0.0
 10
633.5553387093585
 20
-867.6660072667162
 30
0.0
 10
632.259691805347
 20
-868.0373667250884
 30
0.0
 10
631.0677819691012
 20
-868.1404128406632
 30
0.0
 10
630.012905919524
 20
-868.0137146377997
 30
0.0
 10
629.432566514231
 20
-867.7335520327714
 30
0.0
 10
629.149427269643
 20
-867.5968647294
 30
0.0
  0
SPLINE
  5
1FB
330
1F
100
AcDbEntity
  8
0
  6
Continuous
 62
     7
370
    25
100
AcDbSpline
210
0.0
220
0.0
230
1.0
 70
     8
 71
     3
 72
    13
 73
     9
 74
     0
 42
0.00000001
 43
0.00000001
 40
0.0
 40
0.0
 40
0.0
 40
0.0
 40
0.0884811926553146
 40
0.3131877944237609
 40
0.5300342937929226
 40
0.7392297751213034
 40
0.944982840904217
 40
1.0
 40
1.0
 40
1.0
 40
1.0
 10
850.7636271431388
 20
-393.5258636449522
 30
0.0
 10
850.8854359829695
 20
-393.5967560277574
 30
0.0
 10
851.316590228782
 20
-393.84768651757
 30
0.0
 10
851.8914818514136
 20
-394.5549248021971
 30
0.0
 10
852.470244792334
 20
-395.6427205577923
 30
0.0
 10
852.8370250182534
 20
-396.9630097023839
 30
0.0
 10
852.9646958512296
 20
-398.0932352192131
 30
0.0
 10
852.9721594119951
 20
-398.766820116131
 30
0.0
 10
852.973734069954
 20
-398.9089326884368
 30
0.0
  0
SPLINE
  5
1FC
330
1F
100
AcDbEntity
  8
0
  6
Continuous
 62
     7
370
    25
100
AcDbSpline
210
0.0
220
0.0
230
1.0
 70
     8
 71
     3
 72
    23
 73
    19
 74
     0
 42
0.00000001
 43
0.00000001
 40
0.0
 40
0.0
 40
0.0
 40
0.0
 40
0.0335894183173939
 40
0.0980090686472691
 40
0.1626136377275757
 40
0.2273772989805879
 40
0.2922707044179112
 40
0.3572397387519122
 40
0.4222220655242543
 40
0.487134873078747
 40
0.5519085973445664
 40
0.6164811775628374
 40
0.6808078259984965
 40
0.7448964574291651
 40
0.8088825689858049
 40
0.8730223831884328
 40
0.9380494480027864
 40
0.9999999999999999
 40
0.9999999999999999
 40
0.9999999999999999
 40
0.9999999999999999
 10
852.973734069954
 20
-398.9089326884368
 30
0.0
 10
852.9680072591599
 20
-399.1906635012172
 30
0.0
 10
852.9512972528435
 20
-400.0127133000241
 30
0.0
 10
852.7626922808738
 20
-401.4738230676057
 30
0.0
 10
852.3380693980362
 20
-403.2839080082009
 30
0.0
 10
851.7071615649309
 20
-405.1316960677073
 30
0.0
 10
850.8872208120054
 20
-406.9677719477722
 30
0.0
 10
849.8965689745054
 20
-408.7465869834763
 30
0.0
 10
848.760058325633
 20
-410.4229585205743
 30
0.0
 10
847.5068537283842
 20
-411.9547795915535
 30
0.0
 10
846.1701231530589
 20
-413.3040614478647
 30
0.0
 10
844.7860523724827
 20
-414.4383511488113
 30
0.0
 10
843.3928725776694
 20
-415.3321856743721
 30
0.0
 10
842.0298774182455
 20
-415.9678199859976
 30
0.0
 10
840.734230514234
 20
-416.33917944437
 30
0.0
 10
839.5423206779881
 20
-416.442225559945
 30
0.0
 10
838.4874446284107
 20
-416.3155273570815
 30
0.0
 10
837.9071052231176
 20
-416.0353647520531
 30
0.0
 10
837.6239659785293
 20
-415.8986774486818
 30
0.0
  0
SPLINE
  5
1FD
330
1F
100
AcDbEntity
  8
0
  6
Continuous
 62
     7
370
    25
100
AcDbSpline
210
0.0
220
0.0
230
1.0
 70
     8
 71
     3
 72
    13
 73
     9
 74
     0
 42
0.00000001
 43
0.00000001
 40
0.0
 40
0.0
 40
0.0
 40
0.0
 40
0.0884811926552332
 40
0.3131877944236969
 40
0.530034293792874
 40
0.739229775121262
 40
0.9449828409041326
 40
1.0
 40
1.0
 40
1.0
 40
1.0
 10
631.5605249752535
 20
-773.196772662108
 30
0.0
 10
631.6823338150841
 20
-773.2676650449131
 30
0.0
 10
632.1134880608967
 20
-773.5185955347256
 30
0.0
 10
632.6883796835281
 20
-774.2258338193525
 30
0.0
 10
633.2671426244485
 20
-775.313629574948
 30
0.0
 10
633.6339228503681
 20
-776.6339187195393
 30
0.0
 10
633.7615936833442
 20
-777.7641442363686
 30
0.0
 10
633.7690572441098
 20
-778.4377291332867
 30
0.0
 10
633.7706319020688
 20
-778.5798417055927
 30
0.0
  0
SPLINE
  5
1FE
330
1F
100
AcDbEntity
  8
0
  6
Continuous
 62
     7
370
    25
100
AcDbSpline
210
0.0
220
0.0
230
1.0
 70
     8
 71
     3
 72
    23
 73
    19
 74
     0
 42
0.00000001
 43
0.00000001
 40
0.0
 40
0.0
 40
0.0
 40
0.0
 40
0.0335894183173928
 40
0.0980090686472838
 40
0.1626136377275914
 40
0.2273772989805979
 40
0.2922707044179374
 40
0.35723973875193
 40
0.4222220655242648
 40
0.4871348730787536
 40
0.5519085973445718
 40
0.6164811775628548
 40
0.6808078259985081
 40
0.7448964574291694
 40
0.808882568985805
 40
0.8730223831884404
 40
0.9380494480027801
 40
1.0
 40
1.0
 40
1.0
 40
1.0
 10
633.7706319020688
 20
-778.5798417055927
 30
0.0
 10
633.7649050912747
 20
-778.8615725183731
 30
0.0
 10
633.7481950849584
 20
-779.6836223171799
 30
0.0
 10
633.5595901129883
 20
-781.1447320847619
 30
0.0
 10
633.1349672301508
 20
-782.9548170253572
 30
0.0
 10
632.5040593970455
 20
-784.8026050848637
 30
0.0
 10
631.6841186441197
 20
-786.6386809649287
 30
0.0
 10
630.6934668066198
 20
-788.4174960006326
 30
0.0
 10
629.5569561577477
 20
-790.0938675377305
 30
0.0
 10
628.3037515604989
 20
-791.6256886087095
 30
0.0
 10
626.9670209851733
 20
-792.9749704650208
 30
0.0
 10
625.5829502045973
 20
-794.1092601659673
 30
0.0
 10
624.1897704097839
 20
-795.0030946915282
 30
0.0
 10
622.8267752503601
 20
-795.6387290031535
 30
0.0
 10
621.5311283463487
 20
-796.0100884615259
 30
0.0
 10
620.3392185101028
 20
-796.1131345771008
 30
0.0
 10
619.2843424605254
 20
-795.9864363742373
 30
0.0
 10
618.7040030552323
 20
-795.706273769209
 30
0.0
 10
618.420863810644
 20
-795.5695864658377
 30
0.0
  0
SPLINE
  5
1FF
330
1F
100
AcDbEntity
  8
0
  6
Continuous
 62
     7
370
    25
100
AcDbSpline
210
0.0
220
0.0
230
1.0
 70
     8
 71
     3
 72
    13
 73
     9
 74
     0
 42
0.00000001
 43
0.00000001
 40
0.0
 40
0.0
 40
0.0
 40
0.0
 40
0.0884811926552462
 40
0.3131877944236671
 40
0.5300342937928301
 40
0.7392297751212031
 40
0.9449828409041001
 40
1.0
 40
1.0
 40
1.0
 40
1.0
 10
783.0261433535592
 20
-445.0188297797359
 30
0.0
 10
783.1479521933898
 20
-445.0897221625411
 30
0.0
 10
783.5791064392022
 20
-445.3406526523535
 30
0.0
 10
784.1539980618336
 20
-446.0478909369803
 30
0.0
 10
784.7327610027542
 20
-447.1356866925756
 30
0.0
 10
785.0995412286737
 20
-448.455975837167
 30
0.0
 10
785.22721206165
 20
-449.5862013539963
 30
0.0
 10
785.2346756224156
 20
-450.2597862509147
 30
0.0
 10
785.2362502803745
 20
-450.4018988232207
 30
0.0
  0
SPLINE
  5
200
330
1F
100
AcDbEntity
  8
0
  6
Continuous
 62
     7
370
    25
100
AcDbSpline
210
0.0
220
0.0
230
1.0
 70
     8
 71
     3
 72
    23
 73
    19
 74
     0
 42
0.00000001
 43
0.00000001
 40
0.0
 40
0.0
 40
0.0
 40
0.0
 40
0.033589418317394
 40
0.098009068647264
 40
0.1626136377275723
 40
0.2273772989805845
 40
0.292270704417909
 40
0.3572397387519111
 40
0.4222220655242409
 40
0.4871348730787364
 40
0.5519085973445425
 40
0.6164811775628358
 40
0.6808078259984941
 40
0.7448964574291506
 40
0.8088825689857777
 40
0.8730223831884176
 40
0.9380494480027574
 40
1.0
 40
1.0
 40
1.0
 40
1.0
 10
785.2362502803745
 20
-450.4018988232207
 30
0.0
 10
785.2305234695804
 20
-450.6836296360011
 30
0.0
 10
785.2138134632638
 20
-451.5056794348078
 30
0.0
 10
785.0252084912942
 20
-452.9667892023895
 30
0.0
 10
784.6005856084565
 20
-454.7768741429846
 30
0.0
 10
783.9696777753513
 20
-456.624662202491
 30
0.0
 10
783.1497370224258
 20
-458.460738082556
 30
0.0
 10
782.159085184926
 20
-460.23955311826
 30
0.0
 10
781.0225745360538
 20
-461.9159246553578
 30
0.0
 10
779.7693699388051
 20
-463.4477457263371
 30
0.0
 10
778.4326393634796
 20
-464.7970275826482
 30
0.0
 10
777.0485685829034
 20
-465.9313172835949
 30
0.0
 10
775.65538878809
 20
-466.825151809156
 30
0.0
 10
774.2923936286663
 20
-467.4607861207812
 30
0.0
 10
772.9967467246549
 20
-467.8321455791537
 30
0.0
 10
771.8048368884091
 20
-467.9351916947289
 30
0.0
 10
770.7499608388315
 20
-467.8084934918655
 30
0.0
 10
770.1696214335382
 20
-467.5283308868371
 30
0.0
 10
769.8864821889497
 20
-467.3916435834657
 30
0.0
  0
SPLINE
  5
201
330
1F
100
AcDbEntity
  8
0
  6
Continuous
 62
     7
370
    25
100
AcDbSpline
210
0.0
220
0.0
230
1.0
 70
     8
 71
     3
 72
    13
 73
     9
 74
     0
 42
0.00000001
 43
0.00000001
 40
0.0
 40
0.0
 40
0.0
 40
0.0
 40
0.0884811926552748
 40
0.3131877944236805
 40
0.5300342937928474
 40
0.7392297751212278
 40
0.9449828409041268
 40
1.0
 40
1.0
 40
1.0
 40
1.0
 10
642.2890884342642
 20
-688.7825586921208
 30
0.0
 10
642.4108972740949
 20
-688.8534510749259
 30
0.0
 10
642.8420515199073
 20
-689.1043815647384
 30
0.0
 10
643.4169431425387
 20
-689.8116198493653
 30
0.0
 10
643.9957060834591
 20
-690.8994156049606
 30
0.0
 10
644.3624863093786
 20
-692.219704749552
 30
0.0
 10
644.490157142355
 20
-693.3499302663813
 30
0.0
 10
644.4976207031203
 20
-694.0235151632995
 30
0.0
 10
644.4991953610793
 20
-694.1656277356054
 30
0.0
  0
SPLINE
  5
202
330
1F
100
AcDbEntity
  8
0
  6
Continuous
 62
     7
370
    25
100
AcDbSpline
210
0.0
220
0.0
230
1.0
 70
     8
 71
     3
 72
    23
 73
    19
 74
     0
 42
0.00000001
 43
0.00000001
 40
0.0
 40
0.0
 40
0.0
 40
0.0
 40
0.0335894183173928
 40
0.0980090686472835
 40
0.162613637727591
 40
0.2273772989805974
 40
0.2922707044179372
 40
0.3572397387519302
 40
0.4222220655242685
 40
0.4871348730787625
 40
0.5519085973445803
 40
0.6164811775628594
 40
0.6808078259985142
 40
0.7448964574291739
 40
0.8088825689858116
 40
0.8730223831884437
 40
0.9380494480027809
 40
1.0
 40
1.0
 40
1.0
 40
1.0
 10
644.4991953610793
 20
-694.1656277356054
 30
0.0
 10
644.4934685502852
 20
-694.4473585483859
 30
0.0
 10
644.4767585439688
 20
-695.2694083471928
 30
0.0
 10
644.288153571999
 20
-696.7305181147747
 30
0.0
 10
643.8635306891613
 20
-698.54060305537
 30
0.0
 10
643.2326228560561
 20
-700.3883911148765
 30
0.0
 10
642.4126821031304
 20
-702.2244669949414
 30
0.0
 10
641.4220302656304
 20
-704.0032820306454
 30
0.0
 10
640.285519616758
 20
-705.6796535677433
 30
0.0
 10
639.0323150195092
 20
-707.2114746387226
 30
0.0
 10
637.6955844441836
 20
-708.5607564950337
 30
0.0
 10
636.3115136636076
 20
-709.6950461959802
 30
0.0
 10
634.9183338687943
 20
-710.588880721541
 30
0.0
 10
633.5553387093705
 20
-711.2245150331663
 30
0.0
 10
632.2596918053591
 20
-711.5958744915387
 30
0.0
 10
631.0677819691133
 20
-711.6989206071136
 30
0.0
 10
630.012905919536
 20
-711.57222240425
 30
0.0
 10
629.4325665142428
 20
-711.2920597992218
 30
0.0
 10
629.1494272696547
 20
-711.1553724958503
 30
0.0
  0
SPLINE
  5
203
330
1F
100
AcDbEntity
  8
0
  6
Continuous
 62
     7
370
    25
100
AcDbSpline
210
0.0
220
0.0
230
1.0
 70
     8
 71
     3
 72
    13
 73
     9
 74
     0
 42
0.00000001
 43
0.00000001
 40
0.0
 40
0.0
 40
0.0
 40
0.0
 40
0.0884811926552722
 40
0.3131877944237244
 40
0.5300342937928906
 40
0.7392297751212938
 40
0.9449828409042048
 40
1.0
 40
1.0
 40
1.0
 40
1.0
 10
721.9192764321032
 20
-516.2492038076018
 30
0.0
 10
722.0410852719338
 20
-516.3200961904071
 30
0.0
 10
722.4722395177463
 20
-516.5710266802197
 30
0.0
 10
723.0471311403777
 20
-517.2782649648464
 30
0.0
 10
723.6258940812982
 20
-518.3660607204421
 30
0.0
 10
723.9926743072177
 20
-519.6863498650333
 30
0.0
 10
724.1203451401939
 20
-520.8165753818629
 30
0.0
 10
724.1278087009592
 20
-521.4901602787806
 30
0.0
 10
724.1293833589183
 20
-521.6322728510864
 30
0.0
  0
SPLINE
  5
204
330
1F
100
AcDbEntity
  8
0
  6
Continuous
 62
     7
370
    25
100
AcDbSpline
210
0.0
220
0.0
230
1.0
 70
     8
 71
     3
 72
    23
 73
    19
 74
     0
 42
0.00000001
 43
0.00000001
 40
0.0
 40
0.0
 40
0.0
 40
0.0
 40
0.0335894183173931
 40
0.0980090686472629
 40
0.1626136377275714
 40
0.2273772989805814
 40
0.2922707044179175
 40
0.3572397387519159
 40
0.4222220655242534
 40
0.4871348730787503
 40
0.5519085973445654
 40
0.6164811775628498
 40
0.6808078259985061
 40
0.744896457429166
 40
0.8088825689857977
 40
0.8730223831884351
 40
0.9380494480027713
 40
0.9999999999999999
 40
0.9999999999999999
 40
0.9999999999999999
 40
0.9999999999999999
 10
724.1293833589183
 20
-521.6322728510864
 30
0.0
 10
724.1236565481241
 20
-521.914003663867
 30
0.0
 10
724.1069465418077
 20
-522.7360534626737
 30
0.0
 10
723.918341569838
 20
-524.1971632302553
 30
0.0
 10
723.4937186870003
 20
-526.0072481708504
 30
0.0
 10
722.8628108538952
 20
-527.8550362303571
 30
0.0
 10
722.0428701009696
 20
-529.6911121104217
 30
0.0
 10
721.0522182634696
 20
-531.4699271461261
 30
0.0
 10
719.9157076145973
 20
-533.146298683224
 30
0.0
 10
718.6625030173485
 20
-534.6781197542032
 30
0.0
 10
717.325772442023
 20
-536.0274016105144
 30
0.0
 10
715.9417016614469
 20
-537.1616913114609
 30
0.0
 10
714.5485218666336
 20
-538.0555258370218
 30
0.0
 10
713.1855267072098
 20
-538.6911601486472
 30
0.0
 10
711.8898798031984
 20
-539.0625196070197
 30
0.0
 10
710.6979699669524
 20
-539.1655657225947
 30
0.0
 10
709.6430939173752
 20
-539.0388675197313
 30
0.0
 10
709.062754512082
 20
-538.7587049147029
 30
0.0
 10
708.7796152674936
 20
-538.6220176113316
 30
0.0
  0
SPLINE
  5
205
330
1F
100
AcDbEntity
  8
0
  6
Continuous
 62
     7
370
    25
100
AcDbSpline
210
0.0
220
0.0
230
1.0
 70
     8
 71
     3
 72
    13
 73
     9
 74
     0
 42
0.00000001
 43
0.00000001
 40
0.0
 40
0.0
 40
0.0
 40
0.0
 40
0.0884811926551997
 40
0.3131877944236085
 40
0.5300342937927877
 40
0.7392297751211373
 40
0.9449828409040602
 40
1.0
 40
1.0
 40
1.0
 40
1.0
 10
673.4245922696191
 20
-600.2444604275038
 30
0.0
 10
673.5464011094498
 20
-600.3153528103089
 30
0.0
 10
673.9775553552621
 20
-600.5662833001213
 30
0.0
 10
674.5524469778935
 20
-601.273521584748
 30
0.0
 10
675.1312099188141
 20
-602.361317340343
 30
0.0
 10
675.4979901447338
 20
-603.6816064849345
 30
0.0
 10
675.6256609777099
 20
-604.8118320017641
 30
0.0
 10
675.6331245384755
 20
-605.4854168986823
 30
0.0
 10
675.6346991964344
 20
-605.6275294709884
 30
0.0
  0
SPLINE
  5
206
330
1F
100
AcDbEntity
  8
0
  6
Continuous
 62
     7
370
    25
100
AcDbSpline
210
0.0
220
0.0
230
1.0
 70
     8
 71
     3
 72
    23
 73
    19
 74
     0
 42
0.00000001
 43
0.00000001
 40
0.0
 40
0.0
 40
0.0
 40
0.0
 40
0.0335894183173929
 40
0.0980090686472624
 40
0.1626136377275705
 40
0.2273772989805803
 40
0.292270704417916
 40
0.3572397387519141
 40
0.4222220655242512
 40
0.4871348730787478
 40
0.5519085973445642
 40
0.616481177562852
 40
0.6808078259985
 40
0.7448964574291612
 40
0.8088825689857946
 40
0.8730223831884296
 40
0.9380494480027655
 40
1.0
 40
1.0
 40
1.0
 40
1.0
 10
675.6346991964344
 20
-605.6275294709884
 30
0.0
 10
675.6289723856404
 20
-605.909260283769
 30
0.0
 10
675.612262379324
 20
-606.7313100825756
 30
0.0
 10
675.4236574073542
 20
-608.1924198501574
 30
0.0
 10
674.9990345245164
 20
-610.0025047907525
 30
0.0
 10
674.3681266914115
 20
-611.8502928502589
 30
0.0
 10
673.5481859384857
 20
-613.6863687303239
 30
0.0
 10
672.5575341009859
 20
-615.4651837660281
 30
0.0
 10
671.4210234521136
 20
-617.141555303126
 30
0.0
 10
670.1678188548647
 20
-618.6733763741053
 30
0.0
 10
668.8310882795392
 20
-620.0226582304165
 30
0.0
 10
667.447017498963
 20
-621.156947931363
 30
0.0
 10
666.0538377041497
 20
-622.0507824569239
 30
0.0
 10
664.690842544726
 20
-622.6864167685492
 30
0.0
 10
663.3951956407146
 20
-623.0577762269216
 30
0.0
 10
662.2032858044687
 20
-623.1608223424967
 30
0.0
 10
661.1484097548912
 20
-623.0341241396333
 30
0.0
 10
660.5680703495981
 20
-622.7539615346047
 30
0.0
 10
660.2849311050097
 20
-622.6172742312335
 30
0.0
  0
LWPOLYLINE
  5
207
330
1F
100
AcDbEntity
  8
0
  6
Continuous
 62
     7
370
    25
100
AcDbPolyline
 90
      197
 70
   128
 43
0.0
 10
1085.9047582991
 20
-517.3292459223
 10
1085.7801463962
 20
-508.4243853804
 10
1085.4064387346
 20
-499.6725490254
 10
1084.7840193241
 20
-491.0827299607
 10
1083.9135277428
 20
-482.6637548061
 10
1082.7958584796
 20
-474.4242746277
 10
1081.4321600153
 20
-466.3727560482
 10
1079.8238336422
 20
-458.5174725474
 10
1077.9725320244
 20
-450.86649596
 10
1075.8801574994
 20
-443.4276881816
 10
1073.5488601235
 20
-436.2086930902
 10
1070.9810354623
 20
-429.2169286911
 10
1068.1793221293
 20
-422.459579495
 10
1065.1465990744
 20
-415.9435891348
 10
1061.8859826254
 20
-409.6756532312
 10
1058.4008232861
 20
-403.6622125121
 10
1054.6947022934
 20
-397.9094461941
 10
1050.7714279372
 20
-392.4232656337
 10
1046.635031647
 20
-387.2093082523
 10
1042.2897638497
 20
-382.2729317433
 10
1037.7400896016
 20
-377.6192085675
 10
1032.9906840006
 20
-373.25292074
 10
1028.0464273819
 20
-369.1785549167
 10
1022.9124003036
 20
-365.4002977838
 10
1017.5938783254
 20
-361.9220317561
 10
1012.0963265883
 20
-358.7473309868
 10
1006.4253941982
 20
-355.8794576958
 10
1000.5869084215
 20
-353.3213588167
 10
994.5868686971
 20
-351.075662969
 10
988.4314404714
 20
-349.1446777569
 10
982.1269488629
 20
-347.5303873984
 10
975.679872163
 20
-346.2344506858
 10
969.0968351788
 20
-345.2581992819
 10
962.3846024257
 20
-344.6026363508
 10
955.5500711767
 20
-344.2684355278
 10
948.6002643747
 20
-344.2559402268
 10
941.5423234159
 20
-344.5651632877
 10
934.3835008118
 20
-345.1957869628
 10
927.1311527366
 20
-346.1471632436
 10
919.792731468
 20
-347.4183145267
 10
912.3757777301
 20
-349.0079346183
 10
904.8879129441
 20
-350.9143900762
 10
897.3368313974
 20
-353.1357218886
 10
889.7302923367
 20
-355.6696474869
 10
882.0761119949
 20
-358.5135630913
 10
874.38215556
 20
-361.6645463861
 10
866.656329092
 20
-365.1193595232
 10
858.9065714002
 20
-368.8744524483
 10
851.1408458842
 20
-372.9259665498
 10
843.3671323522
 20
-377.2697386231
 10
835.5934188201
 20
-381.9013051485
 10
827.8276933041
 20
-386.8159068786
 10
820.0779356123
 20
-392.0084937277
 10
812.3521091444
 20
-397.4737299619
 10
804.6581527094
 20
-403.2059996816
 10
797.0039723676
 20
-409.1994125919
 10
789.3974333069
 20
-415.4478100562
 10
781.8463517602
 20
-421.9447714235
 10
774.3584869742
 20
-428.683620627
 10
766.9415332363
 20
-435.6574330434
 10
759.6031119678
 20
-442.8590426092
 10
752.3507638925
 20
-450.2810491836
 10
745.1919412884
 20
-457.9158261532
 10
738.1340003296
 20
-465.7555282687
 10
731.1841935276
 20
-473.7920997059
 10
724.3496622786
 20
-482.0172823447
 10
717.6374295256
 20
-490.4226242538
 10
711.0543925413
 20
-498.9994883762
 10
704.6073158414
 20
-507.7390614042
 10
698.3028242329
 20
-516.6323628358
 10
692.1473960072
 20
-525.6702542025
 10
686.1473562828
 20
-534.8434484601
 10
680.3088705061
 20
-544.1425195313
 10
674.637938116
 20
-553.5579119921
 10
669.1403863789
 20
-563.0799508901
 10
663.8218644007
 20
-572.6988516868
 10
658.6878373224
 20
-582.4047303113
 10
653.7435807037
 20
-592.1876133173
 10
648.9941751027
 20
-602.0374481312
 10
644.4445008546
 20
-611.9441133818
 10
640.0992330573
 20
-621.897429301
 10
635.9628367671
 20
-631.8871681838
 10
632.0395624109
 20
-641.9030648982
 10
628.3334414182
 20
-651.9348274332
 10
624.848282079
 20
-661.9721474748
 10
621.5876656299
 20
-672.0047109981
 10
618.554942575
 20
-682.0222088658
 10
615.753229242
 20
-692.0143474218
 10
613.1854045808
 20
-701.9708590682
 10
610.8541072049
 20
-711.8815128163
 10
608.76173268
 20
-721.7361247993
 10
606.9104310621
 20
-731.5245687374
 10
605.302104689
 20
-741.2367863427
 10
603.9384062247
 20
-750.862797655
 10
602.8207369615
 20
-760.3927112971
 10
601.9502453802
 20
-769.8167346384
 10
601.3278259698
 20
-779.125183858
 10
600.9541183081
 20
-788.3084938949
 10
600.8295064052
 20
-797.3572282775
 10
600.9541183081
 20
-806.2620888193
 10
601.3278259698
 20
-815.0139251743
 10
601.9502453802
 20
-823.603744239
 10
602.8207369615
 20
-832.0227193936
 10
603.9384062247
 20
-840.2621995721
 10
605.302104689
 20
-848.3137181515
 10
606.9104310621
 20
-856.1690016524
 10
608.76173268
 20
-863.8199782398
 10
610.854107205
 20
-871.2587860181
 10
613.1854045808
 20
-878.4777811095
 10
615.753229242
 20
-885.4695455086
 10
618.554942575
 20
-892.2268947048
 10
621.5876656299
 20
-898.7428850649
 10
624.848282079
 20
-905.0108209685
 10
628.3334414182
 20
-911.0242616877
 10
632.0395624109
 20
-916.7770280056
 10
635.9628367671
 20
-922.263208566
 10
640.0992330573
 20
-927.4771659475
 10
644.4445008546
 20
-932.4135424564
 10
648.9941751027
 20
-937.0672656322
 10
653.7435807037
 20
-941.4335534597
 10
658.6878373224
 20
-945.507919283
 10
663.8218644007
 20
-949.2861764159
 10
669.1403863789
 20
-952.7644424437
 10
674.637938116
 20
-955.9391432129
 10
680.3088705061
 20
-958.8070165039
 10
686.1473562828
 20
-961.365115383
 10
692.1473960072
 20
-963.6108112308
 10
698.3028242329
 20
-965.5417964428
 10
704.6073158414
 20
-967.1560868014
 10
711.0543925413
 20
-968.4520235139
 10
717.6374295256
 20
-969.4282749179
 10
724.3496622786
 20
-970.083837849
 10
731.1841935276
 20
-970.4180386719
 10
738.1340003296
 20
-970.4305339729
 10
745.1919412884
 20
-970.121310912
 10
752.3507638925
 20
-969.490687237
 10
759.6031119678
 20
-968.5393109562
 10
766.9415332363
 20
-967.268159673
 10
774.3584869742
 20
-965.6785395814
 10
781.8463517602
 20
-963.7720841235
 10
789.3974333069
 20
-961.5507523111
 10
797.0039723676
 20
-959.0168267128
 10
804.6581527094
 20
-956.1729111085
 10
812.3521091444
 20
-953.0219278136
 10
820.0779356123
 20
-949.5671146766
 10
827.8276933041
 20
-945.8120217514
 10
835.5934188201
 20
-941.7605076499
 10
843.3671323522
 20
-937.4167355767
 10
851.1408458842
 20
-932.7851690512
 10
858.9065714002
 20
-927.8705673211
 10
866.6563290921
 20
-922.677980472
 10
874.38215556
 20
-917.2127442378
 10
882.0761119949
 20
-911.4804745182
 10
889.7302923367
 20
-905.4870616078
 10
897.3368313974
 20
-899.2386641435
 10
904.8879129441
 20
-892.7417027762
 10
912.3757777301
 20
-886.0028535728
 10
919.792731468
 20
-879.0290411563
 10
927.1311527366
 20
-871.8274315906
 10
934.3835008118
 20
-864.4054250161
 10
941.5423234159
 20
-856.7706480465
 10
948.6002643747
 20
-848.9309459311
 10
955.5500711767
 20
-840.8943744938
 10
962.3846024257
 20
-832.669191855
 10
969.0968351788
 20
-824.2638499459
 10
975.679872163
 20
-815.6869858236
 10
982.1269488629
 20
-806.9474127955
 10
988.4314404714
 20
-798.054111364
 10
994.5868686971
 20
-789.0162199972
 10
1000.5869084215
 20
-779.8430257396
 10
1006.4253941982
 20
-770.5439546684
 10
1012.0963265883
 20
-761.1285622077
 10
1017.5938783254
 20
-751.6065233096
 10
1022.9124003036
 20
-741.987622513
 10
1028.0464273819
 20
-732.2817438884
 10
1032.9906840006
 20
-722.4988608824
 10
1037.7400896016
 20
-712.6490260685
 10
1042.2897638497
 20
-702.7423608179
 10
1046.635031647
 20
-692.7890448987
 10
1050.7714279372
 20
-682.799306016
 10
1054.6947022934
 20
-672.7834093016
 10
1058.4008232861
 20
-662.7516467665
 10
1061.8859826254
 20
-652.7143267249
 10
1065.1465990744
 20
-642.6817632017
 10
1068.1793221293
 20
-632.6642653339
 10
1070.9810354623
 20
-622.6721267779
 10
1073.5488601235
 20
-612.7156151315
 10
1075.8801574994
 20
-602.8049613835
 10
1077.9725320244
 20
-592.9503494004
 10
1079.8238336422
 20
-583.1619054623
 10
1081.4321600153
 20
-573.4496878571
 10
1082.7958584796
 20
-563.8236765447
 10
1083.9135277428
 20
-554.2937629027
 10
1084.7840193241
 20
-544.8697395613
 10
1085.4064387346
 20
-535.5612903418
 10
1085.7801463962
 20
-526.3779803048
 10
1085.9047582991
 20
-517.3292459223
  0
ARC
  5
208
330
1F
100
AcDbEntity
  8
0
  6
Continuous
 62
     7
370
    25
100
AcDbCircle
 10
731.8412586696
 20
-852.1562114956
 30
0.0
 40
119.4428334287429
100
AcDbArc
 50
213.9545888808
 51
265.8827664158
  0
ARC
  5
209
330
1F
100
AcDbEntity
  8
0
  6
Continuous
 62
     7
370
    25
100
AcDbCircle
 10
956.3420375974
 20
-463.2772199251
 30
0.0
 40
119.3668204443966
100
AcDbArc
 50
34.2791632602
 51
85.7193174491
  0
ARC
  5
20A
330
1F
100
AcDbEntity
  8
0
  6
Continuous
 62
     7
370
    25
100
AcDbCircle
 10
985.0373039597
 20
-482.4236288615
 30
0.0
 40
121.6836670818243
100
AcDbArc
 50
34.1467548473
 51
59.6804866357
  0
ARC
  5
20B
330
1F
100
AcDbEntity
  8
0
  6
Continuous
 62
     7
370
    25
100
AcDbCircle
 10
762.7684257097
 20
-867.3399696087
 30
0.0
 40
121.8387222690737
100
AcDbArc
 50
240.3494883525
 51
265.4353878566
  0
LWPOLYLINE
  5
20C
330
1F
100
AcDbEntity
  8
0
  6
Continuous
 62
     7
370
    25
100
AcDbPolyline
 90
       40
 70
   128
 43
0.0
 10
724.4222765777
 20
-521.2240687952
 10
724.2940807183
 20
-523.1318276947
 10
723.9128133454
 20
-525.1381884296
 10
723.2883490837
 20
-527.1911873107
 10
722.4368612295
 20
-529.2376527455
 10
721.3804028712
 20
-531.2245823541
 10
720.1463357251
 20
-533.1005157034
 10
718.7666214821
 20
-534.8168671049
 10
717.2769940164
 20
-536.329183959
 10
715.716033897
 20
-537.5982980535
 10
714.1241691709
 20
-538.59134
 10
712.5426282984
 20
-539.2825905337
 10
711.0123723573
 20
-539.6541466289
 10
709.5730341728
 20
-539.6963851778
 10
708.2618918477
 20
-539.4082122243
 10
707.1129032796
 20
-538.7970912964
 10
706.1558266688
 20
-537.8788501053
 10
705.4154497968
 20
-536.6772706154
 10
704.9109480358
 20
-535.2234731043
 10
704.6553877162
 20
-533.555110164
 10
704.6553877162
 20
-531.7153915182
 10
704.9109480358
 20
-529.7519649135
 10
705.4154497968
 20
-527.7156820677
 10
706.1558266688
 20
-525.6592816367
 10
707.1129032796
 20
-523.6360233117
 10
708.2618918477
 20
-521.6983084205
 10
709.5730341728
 20
-519.8963227608
 10
711.0123723573
 20
-518.2767368148
 10
712.5426282984
 20
-516.8814970078
 10
714.1241691709
 20
-515.7467393178
 10
715.716033897
 20
-514.9018533729
 10
717.2769940164
 20
-514.3687212754
 10
718.7666214821
 20
-514.1611508664
 10
720.1463357251
 20
-514.2845181107
 10
721.3804028712
 20
-514.7356278613
 10
722.4368612295
 20
-515.5027966126
 10
723.2883490837
 20
-516.5661550971
 10
723.9128133454
 20
-517.8981628884
 10
724.2940807183
 20
-519.4643216845
 10
724.4222765777
 20
-521.2240687952
  0
LWPOLYLINE
  5
20D
330
1F
100
AcDbEntity
  8
0
  6
Continuous
 62
     7
370
    25
100
AcDbPolyline
 90
       40
 70
   128
 43
0.0
 10
644.7920885799
 20
-693.7574236797
 10
644.6638927204
 20
-695.6651825792
 10
644.2826253475
 20
-697.6715433141
 10
643.6581610858
 20
-699.7245421953
 10
642.8066732317
 20
-701.77100763
 10
641.7502148733
 20
-703.7579372386
 10
640.5161477272
 20
-705.6338705879
 10
639.1364334843
 20
-707.3502219895
 10
637.6468060186
 20
-708.8625388435
 10
636.0858458991
 20
-710.131652938
 10
634.493981173
 20
-711.1246948845
 10
632.9124403006
 20
-711.8159454182
 10
631.3821843595
 20
-712.1875015134
 10
629.942846175
 20
-712.2297400623
 10
628.6317038499
 20
-711.9415671088
 10
627.4827152818
 20
-711.330446181
 10
626.525638671
 20
-710.4122049898
 10
625.785261799
 20
-709.2106254999
 10
625.2807600379
 20
-707.7568279888
 10
625.0251997184
 20
-706.0884650485
 10
625.0251997184
 20
-704.2487464027
 10
625.2807600379
 20
-702.285319798
 10
625.785261799
 20
-700.2490369522
 10
626.525638671
 20
-698.1926365213
 10
627.4827152818
 20
-696.1693781962
 10
628.6317038499
 20
-694.231663305
 10
629.942846175
 20
-692.4296776454
 10
631.3821843595
 20
-690.8100916994
 10
632.9124403006
 20
-689.4148518923
 10
634.4939811731
 20
-688.2800942023
 10
636.0858458991
 20
-687.4352082574
 10
637.6468060186
 20
-686.9020761599
 10
639.1364334843
 20
-686.6945057509
 10
640.5161477272
 20
-686.8178729952
 10
641.7502148733
 20
-687.2689827458
 10
642.8066732317
 20
-688.0361514971
 10
643.6581610858
 20
-689.0995099816
 10
644.2826253475
 20
-690.4315177729
 10
644.6638927204
 20
-691.997676569
 10
644.7920885799
 20
-693.7574236797
  0
LWPOLYLINE
  5
20E
330
1F
100
AcDbEntity
  8
0
  6
Continuous
 62
     7
370
    25
100
AcDbPolyline
 90
       40
 70
   128
 43
0.0
 10
644.7920885799
 20
-850.1989159132
 10
644.6638927204
 20
-852.1066748127
 10
644.2826253475
 20
-854.1130355476
 10
643.6581610858
 20
-856.1660344288
 10
642.8066732317
 20
-858.2124998636
 10
641.7502148733
 20
-860.1994294722
 10
640.5161477272
 20
-862.0753628215
 10
639.1364334842
 20
-863.791714223
 10
637.6468060186
 20
-865.3040310771
 10
636.0858458991
 20
-866.5731451716
 10
634.493981173
 20
-867.5661871181
 10
632.9124403005
 20
-868.2574376518
 10
631.3821843595
 20
-868.6289937469
 10
629.942846175
 20
-868.6712322959
 10
628.6317038499
 20
-868.3830593423
 10
627.4827152818
 20
-867.7719384145
 10
626.525638671
 20
-866.8536972234
 10
625.785261799
 20
-865.6521177335
 10
625.2807600379
 20
-864.1983202224
 10
625.0251997184
 20
-862.5299572821
 10
625.0251997184
 20
-860.6902386363
 10
625.2807600379
 20
-858.7268120316
 10
625.785261799
 20
-856.6905291857
 10
626.525638671
 20
-854.6341287548
 10
627.4827152818
 20
-852.6108704298
 10
628.6317038499
 20
-850.6731555385
 10
629.942846175
 20
-848.8711698789
 10
631.3821843595
 20
-847.2515839329
 10
632.9124403005
 20
-845.8563441259
 10
634.493981173
 20
-844.7215864358
 10
636.0858458991
 20
-843.876700491
 10
637.6468060186
 20
-843.3435683934
 10
639.1364334842
 20
-843.1359979845
 10
640.5161477272
 20
-843.2593652287
 10
641.7502148733
 20
-843.7104749793
 10
642.8066732317
 20
-844.4776437307
 10
643.6581610858
 20
-845.5410022151
 10
644.2826253475
 20
-846.8730100065
 10
644.6638927204
 20
-848.4391688025
 10
644.7920885799
 20
-850.1989159132
  0
LWPOLYLINE
  5
20F
330
1F
100
AcDbEntity
  8
0
  6
Continuous
 62
     7
370
    25
100
AcDbPolyline
 90
       40
 70
   128
 43
0.0
 10
724.4222765777
 20
-930.7932127134
 10
724.2940807183
 20
-932.7009716129
 10
723.9128133453
 20
-934.7073323478
 10
723.2883490836
 20
-936.7603312289
 10
722.4368612295
 20
-938.8067966637
 10
721.3804028711
 20
-940.7937262723
 10
720.146335725
 20
-942.6696596216
 10
718.7666214821
 20
-944.3860110231
 10
717.2769940164
 20
-945.8983278772
 10
715.716033897
 20
-947.1674419717
 10
714.1241691709
 20
-948.1604839182
 10
712.5426282984
 20
-948.8517344519
 10
711.0123723573
 20
-949.223290547
 10
709.5730341728
 20
-949.265529096
 10
708.2618918477
 20
-948.9773561425
 10
707.1129032796
 20
-948.3662352146
 10
706.1558266688
 20
-947.4479940235
 10
705.4154497968
 20
-946.2464145336
 10
704.9109480357
 20
-944.7926170225
 10
704.6553877162
 20
-943.1242540822
 10
704.6553877162
 20
-941.2845354364
 10
704.9109480357
 20
-939.3211088317
 10
705.4154497968
 20
-937.2848259859
 10
706.1558266688
 20
-935.2284255549
 10
707.1129032796
 20
-933.2051672299
 10
708.2618918477
 20
-931.2674523387
 10
709.5730341728
 20
-929.465466679
 10
711.0123723573
 20
-927.845880733
 10
712.5426282984
 20
-926.450640926
 10
714.1241691709
 20
-925.3158832359
 10
715.716033897
 20
-924.4709972911
 10
717.2769940164
 20
-923.9378651935
 10
718.7666214821
 20
-923.7302947846
 10
720.146335725
 20
-923.8536620289
 10
721.3804028711
 20
-924.3047717794
 10
722.4368612295
 20
-925.0719405308
 10
723.2883490836
 20
-926.1352990152
 10
723.9128133453
 20
-927.4673068066
 10
724.2940807183
 20
-929.0334656027
 10
724.4222765777
 20
-930.7932127134
  0
LWPOLYLINE
  5
210
330
1F
100
AcDbEntity
  8
0
  6
Continuous
 62
     7
370
    25
100
AcDbPolyline
 90
       40
 70
   128
 43
0.0
 10
853.2666272887
 20
-904.7560320018
 10
853.1384314293
 20
-906.6637909013
 10
852.7571640564
 20
-908.6701516362
 10
852.1326997947
 20
-910.7231505174
 10
851.2812119405
 20
-912.7696159521
 10
850.2247535822
 20
-914.7565455608
 10
848.9906864361
 20
-916.63247891
 10
847.6109721931
 20
-918.3488303116
 10
846.1213447274
 20
-919.8611471656
 10
844.560384608
 20
-921.1302612601
 10
842.9685198819
 20
-922.1233032066
 10
841.3869790094
 20
-922.8145537403
 10
839.8567230683
 20
-923.1861098355
 10
838.4173848838
 20
-923.2283483844
 10
837.1062425587
 20
-922.9401754309
 10
835.9572539906
 20
-922.3290545031
 10
835.0001773798
 20
-921.4108133119
 10
834.2598005078
 20
-920.209233822
 10
833.7552987468
 20
-918.7554363109
 10
833.4997384272
 20
-917.0870733706
 10
833.4997384272
 20
-915.2473547248
 10
833.7552987468
 20
-913.2839281201
 10
834.2598005078
 20
-911.2476452743
 10
835.0001773798
 20
-909.1912448434
 10
835.9572539906
 20
-907.1679865184
 10
837.1062425587
 20
-905.2302716271
 10
838.4173848838
 20
-903.4282859675
 10
839.8567230683
 20
-901.8087000215
 10
841.3869790094
 20
-900.4134602144
 10
842.9685198819
 20
-899.2787025244
 10
844.560384608
 20
-898.4338165795
 10
846.1213447274
 20
-897.900684482
 10
847.6109721931
 20
-897.693114073
 10
848.9906864361
 20
-897.8164813173
 10
850.2247535822
 20
-898.2675910679
 10
851.2812119405
 20
-899.0347598192
 10
852.1326997947
 20
-900.0981183037
 10
852.7571640564
 20
-901.430126095
 10
853.1384314293
 20
-902.9962848911
 10
853.2666272887
 20
-904.7560320018
  0
LWPOLYLINE
  5
211
330
1F
100
AcDbEntity
  8
0
  6
Continuous
 62
     7
370
    25
100
AcDbPolyline
 90
       40
 70
   128
 43
0.0
 10
982.1109779998
 20
-782.0326918391
 10
981.9827821403
 20
-783.9404507386
 10
981.6015147674
 20
-785.9468114735
 10
980.9770505057
 20
-787.9998103547
 10
980.1255626516
 20
-790.0462757895
 10
979.0691042932
 20
-792.0332053981
 10
977.8350371471
 20
-793.9091387474
 10
976.4553229041
 20
-795.6254901489
 10
974.9656954385
 20
-797.137807003
 10
973.404735319
 20
-798.4069210975
 10
971.8128705929
 20
-799.399963044
 10
970.2313297204
 20
-800.0912135777
 10
968.7010737794
 20
-800.4627696728
 10
967.2617355948
 20
-800.5050082218
 10
965.9505932698
 20
-800.2168352683
 10
964.8016047016
 20
-799.6057143404
 10
963.8445280908
 20
-798.6874731493
 10
963.1041512189
 20
-797.4858936594
 10
962.5996494578
 20
-796.0320961483
 10
962.3440891382
 20
-794.363733208
 10
962.3440891382
 20
-792.5240145622
 10
962.5996494578
 20
-790.5605879575
 10
963.1041512189
 20
-788.5243051116
 10
963.8445280908
 20
-786.4679046807
 10
964.8016047016
 20
-784.4446463557
 10
965.9505932698
 20
-782.5069314645
 10
967.2617355948
 20
-780.7049458048
 10
968.7010737794
 20
-779.0853598588
 10
970.2313297204
 20
-777.6901200518
 10
971.8128705929
 20
-776.5553623617
 10
973.404735319
 20
-775.7104764169
 10
974.9656954385
 20
-775.1773443193
 10
976.4553229041
 20
-774.9697739104
 10
977.8350371471
 20
-775.0931411546
 10
979.0691042932
 20
-775.5442509052
 10
980.1255626516
 20
-776.3114196566
 10
980.9770505057
 20
-777.374778141
 10
981.6015147674
 20
-778.7067859324
 10
981.9827821403
 20
-780.2729447284
 10
982.1109779998
 20
-782.0326918391
  0
LWPOLYLINE
  5
212
330
1F
100
AcDbEntity
  8
0
  6
Continuous
 62
     7
370
    25
100
AcDbPolyline
 90
       40
 70
   128
 43
0.0
 10
1061.7411659976
 20
-609.4993369546
 10
1061.6129701382
 20
-611.4070958541
 10
1061.2317027652
 20
-613.413456589
 10
1060.6072385035
 20
-615.4664554702
 10
1059.7557506494
 20
-617.512920905
 10
1058.699292291
 20
-619.4998505136
 10
1057.4652251449
 20
-621.3757838628
 10
1056.085510902
 20
-623.0921352644
 10
1054.5958834363
 20
-624.6044521185
 10
1053.0349233169
 20
-625.873566213
 10
1051.4430585908
 20
-626.8666081595
 10
1049.8615177183
 20
-627.5578586931
 10
1048.3312617772
 20
-627.9294147883
 10
1046.8919235927
 20
-627.9716533372
 10
1045.5807812676
 20
-627.6834803837
 10
1044.4317926995
 20
-627.0723594559
 10
1043.4747160887
 20
-626.1541182648
 10
1042.7343392167
 20
-624.9525387748
 10
1042.2298374556
 20
-623.4987412638
 10
1041.9742771361
 20
-621.8303783234
 10
1041.9742771361
 20
-619.9906596776
 10
1042.2298374556
 20
-618.027233073
 10
1042.7343392167
 20
-615.9909502271
 10
1043.4747160887
 20
-613.9345497962
 10
1044.4317926995
 20
-611.9112914712
 10
1045.5807812676
 20
-609.9735765799
 10
1046.8919235927
 20
-608.1715909203
 10
1048.3312617772
 20
-606.5520049743
 10
1049.8615177183
 20
-605.1567651672
 10
1051.4430585908
 20
-604.0220074772
 10
1053.0349233169
 20
-603.1771215323
 10
1054.5958834363
 20
-602.6439894348
 10
1056.085510902
 20
-602.4364190259
 10
1057.4652251449
 20
-602.5597862701
 10
1058.699292291
 20
-603.0108960207
 10
1059.7557506494
 20
-603.7780647721
 10
1060.6072385035
 20
-604.8414232565
 10
1061.2317027652
 20
-606.1734310478
 10
1061.6129701382
 20
-607.7395898439
 10
1061.7411659976
 20
-609.4993369546
  0
LWPOLYLINE
  5
213
330
1F
100
AcDbEntity
  8
0
  6
Continuous
 62
     7
370
    25
100
AcDbPolyline
 90
       40
 70
   128
 43
0.0
 10
1030.6056621623
 20
-400.4680340039
 10
1030.4774663028
 20
-402.3757929034
 10
1030.0961989299
 20
-404.3821536383
 10
1029.4717346682
 20
-406.4351525195
 10
1028.6202468141
 20
-408.4816179543
 10
1027.5637884557
 20
-410.4685475629
 10
1026.3297213096
 20
-412.3444809122
 10
1024.9500070666
 20
-414.0608323137
 10
1023.460379601
 20
-415.5731491678
 10
1021.8994194815
 20
-416.8422632623
 10
1020.3075547554
 20
-417.8353052088
 10
1018.7260138829
 20
-418.5265557425
 10
1017.1957579419
 20
-418.8981118376
 10
1015.7564197574
 20
-418.9403503866
 10
1014.4452774323
 20
-418.652177433
 10
1013.2962888641
 20
-418.0410565052
 10
1012.3392122533
 20
-417.1228153141
 10
1011.5988353814
 20
-415.9212358241
 10
1011.0943336203
 20
-414.4674383131
 10
1010.8387733008
 20
-412.7990753727
 10
1010.8387733008
 20
-410.959356727
 10
1011.0943336203
 20
-408.9959301223
 10
1011.5988353814
 20
-406.9596472764
 10
1012.3392122533
 20
-404.9032468455
 10
1013.2962888641
 20
-402.8799885205
 10
1014.4452774323
 20
-400.9422736292
 10
1015.7564197574
 20
-399.1402879696
 10
1017.1957579419
 20
-397.5207020236
 10
1018.7260138829
 20
-396.1254622165
 10
1020.3075547554
 20
-394.9907045265
 10
1021.8994194815
 20
-394.1458185817
 10
1023.460379601
 20
-393.6126864841
 10
1024.9500070666
 20
-393.4051160752
 10
1026.3297213096
 20
-393.5284833194
 10
1027.5637884557
 20
-393.97959307
 10
1028.6202468141
 20
-394.7467618214
 10
1029.4717346682
 20
-395.8101203058
 10
1030.0961989299
 20
-397.1421280971
 10
1030.4774663028
 20
-398.7082868932
 10
1030.6056621623
 20
-400.4680340039
  0
LWPOLYLINE
  5
214
330
1F
100
AcDbEntity
  8
0
  6
Continuous
 62
     7
370
    25
100
AcDbPolyline
 90
       40
 70
   128
 43
0.0
 10
921.0041110783
 20
-371.7856606887
 10
920.8759152189
 20
-373.6934195882
 10
920.494647846
 20
-375.6997803231
 10
919.8701835843
 20
-377.7527792042
 10
919.0186957302
 20
-379.799244639
 10
917.9622373718
 20
-381.7861742476
 10
916.7281702257
 20
-383.6621075969
 10
915.3484559827
 20
-385.3784589984
 10
913.8588285171
 20
-386.8907758525
 10
912.2978683976
 20
-388.159889947
 10
910.7060036715
 20
-389.1529318935
 10
909.124462799
 20
-389.8441824272
 10
907.594206858
 20
-390.2157385224
 10
906.1548686734
 20
-390.2579770713
 10
904.8437263483
 20
-389.9698041178
 10
903.6947377802
 20
-389.35868319
 10
902.7376611694
 20
-388.4404419988
 10
901.9972842974
 20
-387.2388625089
 10
901.4927825364
 20
-385.7850649978
 10
901.2372222168
 20
-384.1167020575
 10
901.2372222168
 20
-382.2769834117
 10
901.4927825364
 20
-380.313556807
 10
901.9972842974
 20
-378.2772739612
 10
902.7376611694
 20
-376.2208735303
 10
903.6947377802
 20
-374.1976152052
 10
904.8437263483
 20
-372.259900314
 10
906.1548686734
 20
-370.4579146543
 10
907.594206858
 20
-368.8383287084
 10
909.124462799
 20
-367.4430889013
 10
910.7060036715
 20
-366.3083312113
 10
912.2978683976
 20
-365.4634452664
 10
913.8588285171
 20
-364.9303131689
 10
915.3484559827
 20
-364.7227427599
 10
916.7281702257
 20
-364.8461100042
 10
917.9622373718
 20
-365.2972197548
 10
919.0186957302
 20
-366.0643885061
 10
919.8701835843
 20
-367.1277469906
 10
920.494647846
 20
-368.4597547819
 10
920.8759152189
 20
-370.025913578
 10
921.0041110783
 20
-371.7856606887
  0
LWPOLYLINE
  5
215
330
1F
100
AcDbEntity
  8
0
  6
Continuous
 62
     7
370
    25
100
AcDbPolyline
 90
       40
 70
   128
 43
0.0
 10
853.2666272888
 20
-398.5007286325
 10
853.1384314293
 20
-400.408487532
 10
852.7571640564
 20
-402.4148482669
 10
852.1326997947
 20
-404.4678471481
 10
851.2812119406
 20
-406.5143125829
 10
850.2247535822
 20
-408.5012421915
 10
848.9906864361
 20
-410.3771755407
 10
847.6109721931
 20
-412.0935269423
 10
846.1213447275
 20
-413.6058437964
 10
844.560384608
 20
-414.8749578909
 10
842.9685198819
 20
-415.8679998374
 10
841.3869790094
 20
-416.559250371
 10
839.8567230684
 20
-416.9308064662
 10
838.4173848838
 20
-416.9730450151
 10
837.1062425588
 20
-416.6848720616
 10
835.9572539906
 20
-416.0737511338
 10
835.0001773798
 20
-415.1555099427
 10
834.2598005079
 20
-413.9539304527
 10
833.7552987468
 20
-412.5001329417
 10
833.4997384273
 20
-410.8317700013
 10
833.4997384273
 20
-408.9920513555
 10
833.7552987468
 20
-407.0286247509
 10
834.2598005079
 20
-404.992341905
 10
835.0001773798
 20
-402.9359414741
 10
835.9572539906
 20
-400.9126831491
 10
837.1062425588
 20
-398.9749682578
 10
838.4173848839
 20
-397.1729825982
 10
839.8567230684
 20
-395.5533966522
 10
841.3869790094
 20
-394.1581568451
 10
842.9685198819
 20
-393.0233991551
 10
844.560384608
 20
-392.1785132102
 10
846.1213447275
 20
-391.6453811127
 10
847.6109721931
 20
-391.4378107038
 10
848.9906864361
 20
-391.561177948
 10
850.2247535822
 20
-392.0122876986
 10
851.2812119406
 20
-392.77945645
 10
852.1326997947
 20
-393.8428149344
 10
852.7571640564
 20
-395.1748227257
 10
853.1384314293
 20
-396.7409815218
 10
853.2666272888
 20
-398.5007286325
  0
LWPOLYLINE
  5
216
330
1F
100
AcDbEntity
  8
0
  6
Continuous
 62
     7
370
    25
100
AcDbPolyline
 90
      174
 70
   128
 43
0.0
 10
1032.5181963196
 20
-548.1486521436
 10
1032.3934583748
 20
-556.1518812702
 10
1032.0194090604
 20
-564.2885741109
 10
1031.3965417191
 20
-572.5479989856
 10
1030.5256778655
 20
-580.9192623402
 10
1029.4079661029
 20
-589.3913231139
 10
1028.0448806084
 20
-597.953007302
 10
1026.438219188
 20
-606.5930226932
 10
1024.5901009063
 20
-615.2999737632
 10
1022.5029632909
 20
-624.0623767049
 10
1020.1795591178
 20
-632.8686745742
 10
1017.6229527807
 20
-641.7072525329
 10
1014.8365162492
 20
-650.5664531678
 10
1011.8239246215
 20
-659.4345918661
 10
1008.5891512772
 20
-668.2999722263
 10
1005.1364626366
 20
-677.150901485
 10
1001.470412534
 20
-685.9757059384
 10
997.595836211
 20
-694.7627463398
 10
993.5178439395
 20
-703.50043325
 10
989.2418142816
 20
-712.1772423237
 10
984.7733869958
 20
-720.7817295085
 10
980.1184555983
 20
-729.3025461392
 10
975.2831595902
 20
-737.7284539058
 10
970.2738763597
 20
-746.0483396758
 10
965.097212771
 20
-754.2512301517
 10
959.7599964502
 20
-762.3263063437
 10
954.2692667804
 20
-770.2629178397
 10
948.632265617
 20
-778.0505968518
 10
942.8564277366
 20
-785.6790720227
 10
936.9493710306
 20
-793.138281973
 10
930.9188864583
 20
-800.4183885713
 10
924.7729277709
 20
-807.5097899096
 10
918.5196010212
 20
-814.4031329683
 10
912.1671538723
 20
-821.0893259512
 10
905.7239647196
 20
-827.5595502776
 10
899.1985316403
 20
-833.8052722129
 10
892.5994611851
 20
-839.8182541241
 10
885.9354570268
 20
-845.5905653449
 10
879.2153084809
 20
-851.1145926349
 10
872.4478789128
 20
-856.3830502217
 10
865.6420940485
 20
-861.3889894098
 10
858.8069302012
 20
-866.1258077456
 10
851.951402433
 20
-870.5872577253
 10
845.0845526644
 20
-874.7674550353
 10
838.2154377489
 20
-878.6608863128
 10
831.3531175273
 20
-882.2624164175
 10
824.506642879
 20
-885.5672952048
 10
817.685043784
 20
-888.5711637905
 10
810.8973174136
 20
-891.2700602999
 10
804.1524162634
 20
-893.6604250937
 10
797.4592363458
 20
-895.7391054621
 10
790.8266054568
 20
-897.5033597836
 10
784.263271533
 20
-898.9508611408
 10
777.7778911133
 20
-900.0797003891
 10
771.379017922
 20
-900.8883886755
 10
765.075091587
 20
-901.3758594015
 10
758.8744265084
 20
-901.5414696301
 10
752.7852008925
 20
-901.3850009341
 10
746.8154459656
 20
-900.9066596838
 10
740.973035381
 20
-900.107076775
 10
735.2656748346
 20
-898.9873067969
 10
729.7008919016
 20
-897.5488266409
 10
724.2860261081
 20
-895.7935335532
 10
719.0282192509
 20
-893.7237426321
 10
713.9344059779
 20
-891.3421837747
 10
709.011304642
 20
-888.6519980761
 10
704.2654084402
 20
-885.656733687
 10
699.7029768489
 20
-882.3603411338
 10
695.3300273691
 20
-878.7671681079
 10
691.152327589
 20
-874.8819537316
 10
687.1753875775
 20
-870.7098223077
 10
683.4044526163
 20
-866.2562765606
 10
679.8444962823
 20
-861.5271903791
 10
676.5002138876
 20
-856.5288010686
 10
673.3760162867
 20
-851.2677011252
 10
670.476024059
 20
-845.7508295401
 10
667.804062074
 20
-839.9854626479
 10
665.3636544467
 20
-833.9792045299
 10
663.1580198894
 20
-827.7399769843
 10
661.1900674666
 20
-821.2760090786
 10
659.4623927581
 20
-814.5958262954
 10
657.9772744357
 20
-807.7082392886
 10
656.7366712576
 20
-800.6223322625
 10
655.7422194852
 20
-793.3474509902
 10
654.9952307249
 20
-785.8931904878
 10
654.4966901981
 20
-778.2693823588
 10
654.247255442
 20
-770.4860818272
 10
654.247255442
 20
-762.5535544753
 10
654.4966901981
 20
-754.4822627043
 10
654.9952307249
 20
-746.2828519351
 10
655.7422194852
 20
-737.966136568
 10
656.7366712576
 20
-729.5430857188
 10
657.9772744357
 20
-721.024808752
 10
659.4623927581
 20
-712.4225406282
 10
661.1900674666
 20
-703.7476270856
 10
663.1580198894
 20
-695.0115096765
 10
665.3636544467
 20
-686.2257106764
 10
667.804062074
 20
-677.4018178869
 10
670.476024059
 20
-668.5514693526
 10
673.3760162867
 20
-659.6863380111
 10
676.5002138876
 20
-650.8181162974
 10
679.8444962823
 20
-641.9585007226
 10
683.4044526163
 20
-633.1191764467
 10
687.1753875775
 20
-624.3118018673
 10
691.152327589
 20
-615.5479932426
 10
695.3300273691
 20
-606.8393093707
 10
699.7029768489
 20
-598.1972363442
 10
704.2654084402
 20
-589.6331724013
 10
709.011304642
 20
-581.1584128919
 10
713.9344059779
 20
-572.7841353803
 10
719.0282192509
 20
-564.5213849025
 10
724.2860261081
 20
-556.381059399
 10
729.7008919016
 20
-548.373895341
 10
735.2656748346
 20
-540.5104535697
 10
740.973035381
 20
-532.8011053678
 10
746.8154459656
 20
-525.2560187801
 10
752.7852008925
 20
-517.8851452029
 10
758.8744265084
 20
-510.6982062586
 10
765.075091587
 20
-503.7046809739
 10
771.379017922
 20
-496.9137932777
 10
777.7778911133
 20
-490.334499835
 10
784.263271533
 20
-483.9754782344
 10
790.8266054568
 20
-477.8451155425
 10
797.4592363458
 20
-471.951497242
 10
804.1524162634
 20
-466.302396568
 10
810.8973174136
 20
-460.9052642552
 10
817.685043784
 20
-455.7672187115
 10
824.506642879
 20
-450.8950366285
 10
831.3531175273
 20
-446.2951440446
 10
838.2154377489
 20
-441.9736078687
 10
845.0845526644
 20
-437.9361278789
 10
851.951402433
 20
-434.1880292047
 10
858.8069302012
 20
-430.7342553035
 10
865.6420940485
 20
-427.579361441
 10
872.4478789128
 20
-424.7275086825
 10
879.2153084809
 20
-422.1824584053
 10
885.9354570268
 20
-419.9475673374
 10
892.5994611851
 20
-418.0257831304
 10
899.1985316403
 20
-416.4196404717
 10
905.7239647196
 20
-415.1312577416
 10
912.1671538723
 20
-414.1623342189
 10
918.5196010212
 20
-413.5141478404
 10
924.7729277709
 20
-413.1875535145
 10
930.9188864583
 20
-413.1829819945
 10
936.9493710306
 20
-413.5004393097
 10
942.8564277366
 20
-414.1395067581
 10
948.632265617
 20
-415.0993414582
 10
954.2692667804
 20
-416.3786774611
 10
959.7599964502
 20
-417.9758274195
 10
965.097212771
 20
-419.8886848141
 10
970.2738763597
 20
-422.1147267312
 10
975.2831595902
 20
-424.6510171905
 10
980.1184555983
 20
-427.4942110176
 10
984.7733869958
 20
-430.6405582556
 10
989.2418142816
 20
-434.0859091115
 10
993.5178439395
 20
-437.8257194292
 10
997.595836211
 20
-441.8550566828
 10
1001.470412534
 20
-446.1686064825
 10
1005.1364626367
 20
-450.7606795837
 10
1008.5891512772
 20
-455.6252193906
 10
1011.8239246215
 20
-460.7558099447
 10
1014.8365162492
 20
-466.1456843867
 10
1017.6229527807
 20
-471.7877338813
 10
1020.1795591178
 20
-477.6745169939
 10
1022.5029632909
 20
-483.7982695045
 10
1024.5901009063
 20
-490.1509146486
 10
1026.438219188
 20
-496.7240737696
 10
1028.0448806084
 20
-503.5090773699
 10
1029.4079661029
 20
-510.4969765449
 10
1030.5256778655
 20
-517.6785547863
 10
1031.3965417191
 20
-525.0443401376
 10
1032.0194090604
 20
-532.5846176875
 10
1032.3934583748
 20
-540.2894423824
 10
1032.5181963196
 20
-548.1486521436
  0
LWPOLYLINE
  5
217
330
1F
100
AcDbEntity
  8
0
  6
Continuous
 62
     7
370
    25
100
AcDbPolyline
 90
       40
 70
   128
 43
0.0
 10
1061.7411659976
 20
-453.0578447211
 10
1061.6129701382
 20
-454.9656036206
 10
1061.2317027653
 20
-456.9719643555
 10
1060.6072385036
 20
-459.0249632366
 10
1059.7557506494
 20
-461.0714286714
 10
1058.699292291
 20
-463.05835828
 10
1057.4652251449
 20
-464.9342916293
 10
1056.085510902
 20
-466.6506430308
 10
1054.5958834363
 20
-468.1629598849
 10
1053.0349233169
 20
-469.4320739794
 10
1051.4430585908
 20
-470.4251159259
 10
1049.8615177183
 20
-471.1163664596
 10
1048.3312617772
 20
-471.4879225548
 10
1046.8919235927
 20
-471.5301611037
 10
1045.5807812676
 20
-471.2419881502
 10
1044.4317926995
 20
-470.6308672223
 10
1043.4747160887
 20
-469.7126260312
 10
1042.7343392167
 20
-468.5110465413
 10
1042.2298374557
 20
-467.0572490302
 10
1041.9742771361
 20
-465.3888860899
 10
1041.9742771361
 20
-463.5491674441
 10
1042.2298374557
 20
-461.5857408394
 10
1042.7343392167
 20
-459.5494579936
 10
1043.4747160887
 20
-457.4930575626
 10
1044.4317926995
 20
-455.4697992376
 10
1045.5807812676
 20
-453.5320843464
 10
1046.8919235927
 20
-451.7300986867
 10
1048.3312617772
 20
-450.1105127408
 10
1049.8615177183
 20
-448.7152729337
 10
1051.4430585908
 20
-447.5805152437
 10
1053.0349233169
 20
-446.7356292988
 10
1054.5958834363
 20
-446.2024972013
 10
1056.085510902
 20
-445.9949267923
 10
1057.4652251449
 20
-446.1182940366
 10
1058.699292291
 20
-446.5694037872
 10
1059.7557506494
 20
-447.3365725385
 10
1060.6072385036
 20
-448.399931023
 10
1061.2317027653
 20
-449.7319388143
 10
1061.6129701382
 20
-451.2980976104
 10
1061.7411659976
 20
-453.0578447211
  0
LWPOLYLINE
  5
218
330
1F
100
AcDbEntity
  8
0
  6
Continuous
 62
     7
370
    25
100
AcDbPolyline
 90
       40
 70
   128
 43
0.0
 10
982.1109779998
 20
-372.463547921
 10
981.9827821403
 20
-374.3713068205
 10
981.6015147674
 20
-376.3776675554
 10
980.9770505057
 20
-378.4306664365
 10
980.1255626516
 20
-380.4771318713
 10
979.0691042932
 20
-382.4640614799
 10
977.8350371471
 20
-384.3399948292
 10
976.4553229042
 20
-386.0563462307
 10
974.9656954385
 20
-387.5686630848
 10
973.404735319
 20
-388.8377771793
 10
971.812870593
 20
-389.8308191258
 10
970.2313297205
 20
-390.5220696595
 10
968.7010737794
 20
-390.8936257546
 10
967.2617355949
 20
-390.9358643036
 10
965.9505932698
 20
-390.6476913501
 10
964.8016047017
 20
-390.0365704222
 10
963.8445280909
 20
-389.1183292311
 10
963.1041512189
 20
-387.9167497412
 10
962.5996494578
 20
-386.4629522301
 10
962.3440891383
 20
-384.7945892898
 10
962.3440891383
 20
-382.954870644
 10
962.5996494578
 20
-380.9914440393
 10
963.1041512189
 20
-378.9551611935
 10
963.8445280909
 20
-376.8987607625
 10
964.8016047017
 20
-374.8755024375
 10
965.9505932698
 20
-372.9377875463
 10
967.2617355949
 20
-371.1358018866
 10
968.7010737794
 20
-369.5162159406
 10
970.2313297205
 20
-368.1209761336
 10
971.812870593
 20
-366.9862184435
 10
973.404735319
 20
-366.1413324987
 10
974.9656954385
 20
-365.6082004011
 10
976.4553229042
 20
-365.4006299922
 10
977.8350371471
 20
-365.5239972365
 10
979.0691042932
 20
-365.9751069871
 10
980.1255626516
 20
-366.7422757384
 10
980.9770505057
 20
-367.8056342228
 10
981.6015147674
 20
-369.1376420142
 10
981.9827821403
 20
-370.7038008103
 10
982.1109779998
 20
-372.463547921
  0
LWPOLYLINE
  5
219
330
1F
100
AcDbEntity
  8
0
  6
Continuous
 62
     7
370
    25
100
AcDbPolyline
 90
       40
 70
   128
 43
0.0
 10
1072.4697294566
 20
-525.0851229846
 10
1072.3415335972
 20
-526.9928818841
 10
1071.9602662243
 20
-528.999242619
 10
1071.3358019625
 20
-531.0522415002
 10
1070.4843141084
 20
-533.098706935
 10
1069.42785575
 20
-535.0856365436
 10
1068.1937886039
 20
-536.9615698929
 10
1066.814074361
 20
-538.6779212944
 10
1065.3244468953
 20
-540.1902381485
 10
1063.7634867759
 20
-541.459352243
 10
1062.1716220498
 20
-542.4523941895
 10
1060.5900811773
 20
-543.1436447232
 10
1059.0598252362
 20
-543.5152008183
 10
1057.6204870517
 20
-543.5574393673
 10
1056.3093447266
 20
-543.2692664137
 10
1055.1603561585
 20
-542.6581454859
 10
1054.2032795477
 20
-541.7399042948
 10
1053.4629026757
 20
-540.5383248049
 10
1052.9584009146
 20
-539.0845272938
 10
1052.7028405951
 20
-537.4161643535
 10
1052.7028405951
 20
-535.5764457077
 10
1052.9584009146
 20
-533.613019103
 10
1053.4629026757
 20
-531.5767362571
 10
1054.2032795477
 20
-529.5203358262
 10
1055.1603561585
 20
-527.4970775012
 10
1056.3093447266
 20
-525.5593626099
 10
1057.6204870517
 20
-523.7573769503
 10
1059.0598252362
 20
-522.1377910043
 10
1060.5900811773
 20
-520.7425511972
 10
1062.1716220498
 20
-519.6077935072
 10
1063.7634867759
 20
-518.7629075624
 10
1065.3244468953
 20
-518.2297754648
 10
1066.814074361
 20
-518.0222050559
 10
1068.1937886039
 20
-518.1455723001
 10
1069.42785575
 20
-518.5966820507
 10
1070.4843141084
 20
-519.3638508021
 10
1071.3358019625
 20
-520.4272092865
 10
1071.9602662243
 20
-521.7592170778
 10
1072.3415335972
 20
-523.3253758739
 10
1072.4697294566
 20
-525.0851229846
  0
LWPOLYLINE
  5
21A
330
1F
100
AcDbEntity
  8
0
  6
Continuous
 62
     7
370
    25
100
AcDbPolyline
 90
       40
 70
   128
 43
0.0
 10
1030.6056621622
 20
-698.0374352192
 10
1030.4774663028
 20
-699.9451941187
 10
1030.0961989299
 20
-701.9515548536
 10
1029.4717346682
 20
-704.0045537348
 10
1028.6202468141
 20
-706.0510191696
 10
1027.5637884557
 20
-708.0379487782
 10
1026.3297213096
 20
-709.9138821275
 10
1024.9500070666
 20
-711.630233529
 10
1023.460379601
 20
-713.1425503831
 10
1021.8994194815
 20
-714.4116644776
 10
1020.3075547554
 20
-715.4047064241
 10
1018.7260138829
 20
-716.0959569578
 10
1017.1957579419
 20
-716.4675130529
 10
1015.7564197573
 20
-716.5097516019
 10
1014.4452774322
 20
-716.2215786484
 10
1013.2962888641
 20
-715.6104577205
 10
1012.3392122533
 20
-714.6922165294
 10
1011.5988353814
 20
-713.4906370395
 10
1011.0943336203
 20
-712.0368395284
 10
1010.8387733007
 20
-710.3684765881
 10
1010.8387733007
 20
-708.5287579423
 10
1011.0943336203
 20
-706.5653313376
 10
1011.5988353814
 20
-704.5290484917
 10
1012.3392122533
 20
-702.4726480608
 10
1013.2962888641
 20
-700.4493897358
 10
1014.4452774322
 20
-698.5116748445
 10
1015.7564197573
 20
-696.7096891849
 10
1017.1957579419
 20
-695.0901032389
 10
1018.7260138829
 20
-693.6948634319
 10
1020.3075547554
 20
-692.5601057418
 10
1021.8994194815
 20
-691.715219797
 10
1023.460379601
 20
-691.1820876994
 10
1024.9500070666
 20
-690.9745172905
 10
1026.3297213096
 20
-691.0978845347
 10
1027.5637884557
 20
-691.5489942853
 10
1028.6202468141
 20
-692.3161630367
 10
1029.4717346682
 20
-693.3795215211
 10
1030.0961989299
 20
-694.7115293125
 10
1030.4774663028
 20
-696.2776881085
 10
1030.6056621622
 20
-698.0374352192
  0
LWPOLYLINE
  5
21B
330
1F
100
AcDbEntity
  8
0
  6
Continuous
 62
     7
370
    25
100
AcDbPolyline
 90
       40
 70
   128
 43
0.0
 10
921.0041110783
 20
-853.263065867
 10
920.8759152189
 20
-855.1708247665
 10
920.4946478459
 20
-857.1771855014
 10
919.8701835842
 20
-859.2301843826
 10
919.0186957301
 20
-861.2766498174
 10
917.9622373717
 20
-863.263579426
 10
916.7281702256
 20
-865.1395127752
 10
915.3484559827
 20
-866.8558641768
 10
913.858828517
 20
-868.3681810309
 10
912.2978683976
 20
-869.6372951254
 10
910.7060036715
 20
-870.6303370718
 10
909.124462799
 20
-871.3215876055
 10
907.5942068579
 20
-871.6931437007
 10
906.1548686734
 20
-871.7353822496
 10
904.8437263483
 20
-871.4472092961
 10
903.6947377802
 20
-870.8360883683
 10
902.7376611694
 20
-869.9178471771
 10
901.9972842974
 20
-868.7162676872
 10
901.4927825363
 20
-867.2624701762
 10
901.2372222168
 20
-865.5941072358
 10
901.2372222168
 20
-863.75438859
 10
901.4927825363
 20
-861.7909619854
 10
901.9972842974
 20
-859.7546791395
 10
902.7376611694
 20
-857.6982787086
 10
903.6947377802
 20
-855.6750203836
 10
904.8437263483
 20
-853.7373054923
 10
906.1548686734
 20
-851.9353198327
 10
907.5942068579
 20
-850.3157338867
 10
909.124462799
 20
-848.9204940796
 10
910.7060036715
 20
-847.7857363896
 10
912.2978683976
 20
-846.9408504447
 10
913.858828517
 20
-846.4077183472
 10
915.3484559827
 20
-846.2001479383
 10
916.7281702256
 20
-846.3235151825
 10
917.9622373717
 20
-846.7746249331
 10
919.0186957301
 20
-847.5417936845
 10
919.8701835842
 20
-848.6051521689
 10
920.4946478459
 20
-849.9371599602
 10
920.8759152189
 20
-851.5033187563
 10
921.0041110783
 20
-853.263065867
  0
LWPOLYLINE
  5
21C
330
1F
100
AcDbEntity
  8
0
  6
Continuous
 62
     7
370
    25
100
AcDbPolyline
 90
       40
 70
   128
 43
0.0
 10
785.5291434992
 20
-931.4710999456
 10
785.4009476397
 20
-933.3788588451
 10
785.0196802668
 20
-935.38521958
 10
784.3952160051
 20
-937.4382184612
 10
783.543728151
 20
-939.484683896
 10
782.4872697926
 20
-941.4716135046
 10
781.2532026465
 20
-943.3475468539
 10
779.8734884035
 20
-945.0638982554
 10
778.3838609379
 20
-946.5762151095
 10
776.8229008184
 20
-947.845329204
 10
775.2310360923
 20
-948.8383711505
 10
773.6494952198
 20
-949.5296216841
 10
772.1192392788
 20
-949.9011777793
 10
770.6799010942
 20
-949.9434163283
 10
769.3687587692
 20
-949.6552433747
 10
768.219770201
 20
-949.0441224469
 10
767.2626935902
 20
-948.1258812558
 10
766.5223167183
 20
-946.9243017658
 10
766.0178149572
 20
-945.4705042548
 10
765.7622546376
 20
-943.8021413144
 10
765.7622546376
 20
-941.9624226687
 10
766.0178149572
 20
-939.998996064
 10
766.5223167183
 20
-937.9627132181
 10
767.2626935902
 20
-935.9063127872
 10
768.219770201
 20
-933.8830544622
 10
769.3687587692
 20
-931.9453395709
 10
770.6799010942
 20
-930.1433539113
 10
772.1192392788
 20
-928.5237679653
 10
773.6494952198
 20
-927.1285281582
 10
775.2310360923
 20
-925.9937704682
 10
776.8229008184
 20
-925.1488845234
 10
778.3838609379
 20
-924.6157524258
 10
779.8734884035
 20
-924.4081820169
 10
781.2532026465
 20
-924.5315492611
 10
782.4872697926
 20
-924.9826590117
 10
783.543728151
 20
-925.7498277631
 10
784.3952160051
 20
-926.8131862475
 10
785.0196802668
 20
-928.1451940388
 10
785.4009476397
 20
-929.7113528349
 10
785.5291434992
 20
-931.4710999456
  0
LWPOLYLINE
  5
21D
330
1F
100
AcDbEntity
  8
0
  6
Continuous
 62
     7
370
    25
100
AcDbPolyline
 90
       40
 70
   128
 43
0.0
 10
675.9275924152
 20
-902.7887266304
 10
675.7993965558
 20
-904.6964855299
 10
675.4181291829
 20
-906.7028462648
 10
674.7936649212
 20
-908.7558451459
 10
673.942177067
 20
-910.8023105807
 10
672.8857187086
 20
-912.7892401893
 10
671.6516515625
 20
-914.6651735386
 10
670.2719373196
 20
-916.3815249401
 10
668.7823098539
 20
-917.8938417942
 10
667.2213497345
 20
-919.1629558887
 10
665.6294850084
 20
-920.1559978352
 10
664.0479441359
 20
-920.8472483689
 10
662.5176881948
 20
-921.2188044641
 10
661.0783500103
 20
-921.261043013
 10
659.7672076852
 20
-920.9728700595
 10
658.6182191171
 20
-920.3617491317
 10
657.6611425063
 20
-919.4435079405
 10
656.9207656343
 20
-918.2419284506
 10
656.4162638733
 20
-916.7881309395
 10
656.1607035537
 20
-915.1197679992
 10
656.1607035537
 20
-913.2800493534
 10
656.4162638733
 20
-911.3166227487
 10
656.9207656343
 20
-909.2803399029
 10
657.6611425063
 20
-907.223939472
 10
658.6182191171
 20
-905.2006811469
 10
659.7672076852
 20
-903.2629662557
 10
661.0783500103
 20
-901.460980596
 10
662.5176881948
 20
-899.8413946501
 10
664.0479441359
 20
-898.446154843
 10
665.6294850084
 20
-897.311397153
 10
667.2213497345
 20
-896.4665112081
 10
668.7823098539
 20
-895.9333791106
 10
670.2719373196
 20
-895.7258087016
 10
671.6516515625
 20
-895.8491759459
 10
672.8857187086
 20
-896.3002856965
 10
673.942177067
 20
-897.0674544478
 10
674.7936649212
 20
-898.1308129323
 10
675.4181291829
 20
-899.4628207236
 10
675.7993965558
 20
-901.0289795197
 10
675.9275924152
 20
-902.7887266304
  0
LWPOLYLINE
  5
21E
330
1F
100
AcDbEntity
  8
0
  6
Continuous
 62
     7
370
    25
100
AcDbPolyline
 90
       40
 70
   128
 43
0.0
 10
634.0635251209
 20
-778.1716376497
 10
633.9353292614
 20
-780.0793965492
 10
633.5540618885
 20
-782.0857572841
 10
632.9295976268
 20
-784.1387561652
 10
632.0781097727
 20
-786.1852216
 10
631.0216514143
 20
-788.1721512086
 10
629.7875842682
 20
-790.0480845579
 10
628.4078700252
 20
-791.7644359594
 10
626.9182425596
 20
-793.2767528135
 10
625.3572824401
 20
-794.545866908
 10
623.765417714
 20
-795.5389088545
 10
622.1838768415
 20
-796.2301593882
 10
620.6536209005
 20
-796.6017154834
 10
619.214282716
 20
-796.6439540323
 10
617.9031403909
 20
-796.3557810788
 10
616.7541518228
 20
-795.744660151
 10
615.797075212
 20
-794.8264189598
 10
615.05669834
 20
-793.6248394699
 10
614.5521965789
 20
-792.1710419588
 10
614.2966362594
 20
-790.5026790185
 10
614.2966362594
 20
-788.6629603727
 10
614.5521965789
 20
-786.699533768
 10
615.05669834
 20
-784.6632509222
 10
615.797075212
 20
-782.6068504912
 10
616.7541518228
 20
-780.5835921662
 10
617.9031403909
 20
-778.645877275
 10
619.214282716
 20
-776.8438916153
 10
620.6536209005
 20
-775.2243056694
 10
622.1838768415
 20
-773.8290658623
 10
623.765417714
 20
-772.6943081723
 10
625.3572824401
 20
-771.8494222274
 10
626.9182425596
 20
-771.3162901299
 10
628.4078700252
 20
-771.1087197209
 10
629.7875842682
 20
-771.2320869652
 10
631.0216514143
 20
-771.6831967158
 10
632.0781097727
 20
-772.4503654671
 10
632.9295976268
 20
-773.5137239516
 10
633.5540618885
 20
-774.8457317429
 10
633.9353292614
 20
-776.411890539
 10
634.0635251209
 20
-778.1716376497
  0
LWPOLYLINE
  5
21F
330
1F
100
AcDbEntity
  8
0
  6
Continuous
 62
     7
370
    25
100
AcDbPolyline
 90
       40
 70
   128
 43
0.0
 10
675.9275924152
 20
-605.2193254151
 10
675.7993965558
 20
-607.1270843146
 10
675.4181291829
 20
-609.1334450495
 10
674.7936649212
 20
-611.1864439306
 10
673.9421770671
 20
-613.2329093654
 10
672.8857187087
 20
-615.219838974
 10
671.6516515626
 20
-617.0957723233
 10
670.2719373196
 20
-618.8121237248
 10
668.782309854
 20
-620.3244405789
 10
667.2213497345
 20
-621.5935546734
 10
665.6294850084
 20
-622.5865966199
 10
664.0479441359
 20
-623.2778471536
 10
662.5176881949
 20
-623.6494032488
 10
661.0783500103
 20
-623.6916417977
 10
659.7672076852
 20
-623.4034688442
 10
658.6182191171
 20
-622.7923479163
 10
657.6611425063
 20
-621.8741067252
 10
656.9207656343
 20
-620.6725272353
 10
656.4162638733
 20
-619.2187297242
 10
656.1607035537
 20
-617.5503667839
 10
656.1607035537
 20
-615.7106481381
 10
656.4162638733
 20
-613.7472215334
 10
656.9207656343
 20
-611.7109386876
 10
657.6611425063
 20
-609.6545382566
 10
658.6182191171
 20
-607.6312799316
 10
659.7672076852
 20
-605.6935650404
 10
661.0783500103
 20
-603.8915793807
 10
662.5176881949
 20
-602.2719934347
 10
664.0479441359
 20
-600.8767536277
 10
665.6294850084
 20
-599.7419959377
 10
667.2213497345
 20
-598.8971099928
 10
668.782309854
 20
-598.3639778953
 10
670.2719373196
 20
-598.1564074863
 10
671.6516515626
 20
-598.2797747306
 10
672.8857187087
 20
-598.7308844812
 10
673.9421770671
 20
-599.4980532325
 10
674.7936649212
 20
-600.561411717
 10
675.4181291829
 20
-601.8934195083
 10
675.7993965558
 20
-603.4595783044
 10
675.9275924152
 20
-605.2193254151
  0
LWPOLYLINE
  5
220
330
1F
100
AcDbEntity
  8
0
  6
Continuous
 62
     7
370
    25
100
AcDbPolyline
 90
       40
 70
   128
 43
0.0
 10
785.5291434992
 20
-449.9936947673
 10
785.4009476397
 20
-451.9014536668
 10
785.0196802668
 20
-453.9078144017
 10
784.3952160051
 20
-455.9608132829
 10
783.543728151
 20
-458.0072787177
 10
782.4872697926
 20
-459.9942083263
 10
781.2532026465
 20
-461.8701416755
 10
779.8734884035
 20
-463.5864930771
 10
778.3838609379
 20
-465.0988099312
 10
776.8229008184
 20
-466.3679240257
 10
775.2310360923
 20
-467.3609659721
 10
773.6494952198
 20
-468.0522165058
 10
772.1192392788
 20
-468.423772601
 10
770.6799010943
 20
-468.4660111499
 10
769.3687587692
 20
-468.1778381964
 10
768.2197702011
 20
-467.5667172686
 10
767.2626935903
 20
-466.6484760774
 10
766.5223167183
 20
-465.4468965875
 10
766.0178149572
 20
-463.9930990765
 10
765.7622546377
 20
-462.3247361361
 10
765.7622546377
 20
-460.4850174903
 10
766.0178149572
 20
-458.5215908856
 10
766.5223167183
 20
-456.4853080398
 10
767.2626935903
 20
-454.4289076089
 10
768.2197702011
 20
-452.4056492839
 10
769.3687587692
 20
-450.4679343926
 10
770.6799010943
 20
-448.665948733
 10
772.1192392788
 20
-447.046362787
 10
773.6494952198
 20
-445.6511229799
 10
775.2310360923
 20
-444.5163652899
 10
776.8229008184
 20
-443.671479345
 10
778.3838609379
 20
-443.1383472475
 10
779.8734884035
 20
-442.9307768386
 10
781.2532026465
 20
-443.0541440828
 10
782.4872697926
 20
-443.5052538334
 10
783.543728151
 20
-444.2724225848
 10
784.3952160051
 20
-445.3357810692
 10
785.0196802668
 20
-446.6677888605
 10
785.4009476397
 20
-448.2339476566
 10
785.5291434992
 20
-449.9936947673
  0
ARC
  5
221
330
1F
100
AcDbEntity
  8
0
  6
Continuous
 62
     7
370
    25
100
AcDbCircle
 10
931.3244773757
 20
-506.563439522
 30
0.0
 40
91.89101108334722
100
AcDbArc
 50
37.8035339701
 51
83.7815105198
  0
ARC
  5
222
330
1F
100
AcDbEntity
  8
0
  6
Continuous
 62
     7
370
    25
100
AcDbCircle
 10
756.7777440379
 20
-808.9303412155
 30
0.0
 40
91.87681895188942
100
AcDbArc
 50
216.380489177
 51
262.3848443688
  0
ARC
  5
223
330
1F
100
AcDbEntity
  8
0
  6
Continuous
 62
     7
370
    25
100
AcDbCircle
 10
792.6576006709
 20
-821.4052250251
 30
0.0
 40
99.30280439175398
100
AcDbArc
 50
215.1636042685
 51
228.538647072
  0
ARC
  5
224
330
1F
100
AcDbEntity
  8
0
  6
Continuous
 62
     7
370
    25
100
AcDbCircle
 10
960.7232686912
 20
-528.7194830384
 30
0.0
 40
96.5715971322451
100
AcDbArc
 50
71.324464166
 51
82.2913750226
  0
LINE
  5
225
330
1F
100
AcDbEntity
  8
0
  6
Continuous
 62
     7
370
    25
100
AcDbLine
 10
1028.1588322843
 20
-693.0551113279
 30
0.0
 11
1027.912745769
 21
-692.901860847
 31
0.0
  0
LINE
  5
226
330
1F
100
AcDbEntity
  8
0
  6
Continuous
 62
     7
370
    25
100
AcDbLine
 10
979.6641481218
 20
-777.0503679478
 30
0.0
 11
979.4180616065
 21
-776.8971174669
 31
0.0
  0
LINE
  5
227
330
1F
100
AcDbEntity
  8
0
  6
Continuous
 62
     7
370
    25
100
AcDbLine
 10
1059.2943361197
 20
-604.5170130632
 30
0.0
 11
1059.0482496043
 21
-604.3637625824
 31
0.0
  0
LINE
  5
228
330
1F
100
AcDbEntity
  8
0
  6
Continuous
 62
     7
370
    25
100
AcDbLine
 10
918.5572812004
 20
-848.2807419756
 30
0.0
 11
918.311194685
 21
-848.1274914947
 31
0.0
  0
LINE
  5
229
330
1F
100
AcDbEntity
  8
0
  6
Continuous
 62
     7
370
    25
100
AcDbLine
 10
1070.0228995787
 20
-520.1027990933
 30
0.0
 11
1069.7768130633
 21
-519.9495486124
 31
0.0
  0
LINE
  5
22A
330
1F
100
AcDbEntity
  8
0
  6
Continuous
 62
     7
370
    25
100
AcDbLine
 10
850.8197974108
 20
-899.7737081104
 30
0.0
 11
850.5737108954
 21
-899.6204576295
 31
0.0
  0
LINE
  5
22B
330
1F
100
AcDbEntity
  8
0
  6
Continuous
 62
     7
370
    25
100
AcDbLine
 10
1059.2943361197
 20
-448.0755208297
 30
0.0
 11
1059.0482496043
 21
-447.9222703488
 31
0.0
  0
LINE
  5
22C
330
1F
100
AcDbEntity
  8
0
  6
Continuous
 62
     7
370
    25
100
AcDbLine
 10
783.0823136212
 20
-926.4887760542
 30
0.0
 11
782.8362271059
 21
-926.3355255734
 31
0.0
  0
LINE
  5
22D
330
1F
100
AcDbEntity
  8
0
  6
Continuous
 62
     7
370
    25
100
AcDbLine
 10
1028.1588322843
 20
-395.4857101125
 30
0.0
 11
1027.912745769
 21
-395.3324596317
 31
0.0
  0
LINE
  5
22E
330
1F
100
AcDbEntity
  8
0
  6
Continuous
 62
     7
370
    25
100
AcDbLine
 10
721.9754466998
 20
-925.810888822
 30
0.0
 11
721.7293601844
 21
-925.6576383411
 31
0.0
  0
LINE
  5
22F
330
1F
100
AcDbEntity
  8
0
  6
Continuous
 62
     7
370
    25
100
AcDbLine
 10
979.6641481218
 20
-367.4812240296
 30
0.0
 11
979.4180616065
 21
-367.3279735487
 31
0.0
  0
LINE
  5
230
330
1F
100
AcDbEntity
  8
0
  6
Continuous
 62
     7
370
    25
100
AcDbLine
 10
673.4807625373
 20
-897.806402739
 30
0.0
 11
673.2346760219
 21
-897.6531522581
 31
0.0
  0
LINE
  5
231
330
1F
100
AcDbEntity
  8
0
  6
Continuous
 62
     7
370
    25
100
AcDbLine
 10
918.5572812004
 20
-366.8033367973
 30
0.0
 11
918.3111946851
 21
-366.6500863164
 31
0.0
  0
LINE
  5
232
330
1F
100
AcDbEntity
  8
0
  6
Continuous
 62
     7
370
    25
100
AcDbLine
 10
642.3452587019
 20
-845.2165920219
 30
0.0
 11
642.0991721866
 21
-845.063341541
 31
0.0
  0
LINE
  5
233
330
1F
100
AcDbEntity
  8
0
  6
Continuous
 62
     7
370
    25
100
AcDbLine
 10
850.8197974108
 20
-393.5184047411
 30
0.0
 11
850.5737108955
 21
-393.3651542602
 31
0.0
  0
LINE
  5
234
330
1F
100
AcDbEntity
  8
0
  6
Continuous
 62
     7
370
    25
100
AcDbLine
 10
631.6166952429
 20
-773.1893137583
 30
0.0
 11
631.3706087276
 21
-773.0360632774
 31
0.0
  0
LINE
  5
235
330
1F
100
AcDbEntity
  8
0
  6
Continuous
 62
     7
370
    25
100
AcDbLine
 10
783.0823136212
 20
-445.0113708759
 30
0.0
 11
782.8362271059
 21
-444.858120395
 31
0.0
  0
LINE
  5
236
330
1F
100
AcDbEntity
  8
0
  6
Continuous
 62
     7
370
    25
100
AcDbLine
 10
642.3452587019
 20
-688.7750997883
 30
0.0
 11
642.0991721866
 21
-688.6218493074
 31
0.0
  0
LINE
  5
237
330
1F
100
AcDbEntity
  8
0
  6
Continuous
 62
     7
370
    25
100
AcDbLine
 10
721.9754466998
 20
-516.2417449038
 30
0.0
 11
721.7293601844
 21
-516.0884944229
 31
0.0
  0
LINE
  5
238
330
1F
100
AcDbEntity
  8
0
  6
Continuous
 62
     7
370
    25
100
AcDbLine
 10
673.4807625373
 20
-600.2370015237
 30
0.0
 11
673.234676022
 21
-600.0837510428
 31
0.0
  0
LWPOLYLINE
  5
239
330
1F
100
AcDbEntity
  8
0
  6
Continuous
 62
     1
370
    25
100
AcDbPolyline
 90
       67
 70
   128
 43
0.0
 10
1087.3189718615
 20
-517.3292459223
 10
1087.1939966586
 20
-526.4043614546
 10
1086.8191994702
 20
-535.6144449902
 10
1086.1949654259
 20
-544.9500325457
 10
1085.3219359682
 20
-554.4015311737
 10
1084.2010081941
 20
-563.9592288206
 10
1082.8333339325
 20
-573.6133043058
 10
1081.2203185612
 20
-583.3538374143
 10
1079.3636195626
 20
-593.1708190898
 10
1077.2651448203
 20
-603.0541617201
 10
1074.9270506591
 20
-612.9937095024
 10
1072.3517396287
 20
-622.9792488796
 10
1069.5418580352
 20
-633.0005190348
 10
1066.5002932221
 20
-643.0472224357
 10
1063.2301706027
 20
-653.1090354153
 10
1059.734850449
 20
-663.1756187807
 10
1056.0179244389
 20
-673.2366284368
 10
1052.083211965
 20
-683.2817260162
 10
1047.9347562104
 20
-693.3005895022
 10
1043.5768199938
 20
-703.2829238351
 10
1039.0138813893
 20
-713.2184714917
 10
1034.2506291247
 20
-723.0970230252
 10
1029.2919577638
 20
-732.908427556
 10
1024.1429626765
 20
-742.6426032027
 10
1018.8089348033
 20
-752.289547442
 10
1013.2953552185
 20
-761.8393473864
 10
1007.6078894979
 20
-771.2821899709
 10
1001.7523818968
 20
-780.6083720365
 10
995.7348493452
 20
-789.8083103007
 10
989.5614752646
 20
-798.8725512049
 10
983.2386032141
 20
-807.791780629
 10
976.7727303722
 20
-816.5568334618
 10
970.1705008603
 20
-825.1587030189
 10
963.4386989156
 20
-833.588550298
 10
956.5842419195
 20
-841.8377130611
 10
949.6141732901
 20
-849.8977147358
 10
942.535655244
 20
-857.7602731256
 10
935.3559614369
 20
-865.4173089202
 10
928.0824694897
 20
-872.8609539978
 10
920.7226534069
 20
-880.0835595098
 10
913.2840758972
 20
-887.0777037408
 10
905.7743806017
 20
-893.836199735
 10
898.20128424
 20
-900.3521026806
 10
890.5725686805
 20
-906.6187170471
 10
882.8960729442
 20
-912.6296034645
 10
875.1796851493
 20
-918.3785853408
 10
867.431334406
 20
-923.8597552083
 10
859.6589826684
 20
-929.0674807946
 10
851.8706165533
 20
-933.9964108096
 10
844.0742391333
 20
-938.6414804445
 10
836.2778617134
 20
-942.9979165762
 10
828.4894955983
 20
-947.0612426722
 10
820.7171438607
 20
-950.8272833901
 10
812.9687931174
 20
-954.2921688687
 10
805.2524053225
 20
-957.4523387038
 10
797.5759095862
 20
-960.3045456073
 10
789.9471940267
 20
-962.8458587437
 10
782.374097665
 20
-965.0736667422
 10
774.8644023695
 20
-966.9856803793
 10
767.4258248597
 20
-968.5799349318
 10
760.066008777
 20
-969.8547921953
 10
752.7925168298
 20
-970.8089421679
 10
745.6128230227
 20
-971.441404396
 10
738.5343049766
 20
-971.7515289818
 10
731.5642363472
 20
-971.7389972514
 10
724.7097793511
 20
-971.403822082
 10
723.2655673175
 20
-971.290790755
  0
LWPOLYLINE
  5
23A
330
1F
100
AcDbEntity
  8
0
  6
Continuous
 62
     1
370
    25
100
AcDbPolyline
 90
       18
 70
   128
 43
0.0
 10
1054.9752205853
 20
-396.0467726808
 10
1056.0179244389
 20
-397.5612835127
 10
1059.734850449
 20
-403.3308217441
 10
1063.2301706027
 20
-409.3617943604
 10
1066.5002932221
 20
-415.6480041296
 10
1069.5418580352
 20
-422.1829915462
 10
1072.3517396287
 20
-428.9600414689
 10
1074.9270506591
 20
-435.9721900207
 10
1077.2651448203
 20
-443.2122317451
 10
1079.3636195626
 20
-450.6727270096
 10
1081.2203185612
 20
-458.3460096512
 10
1082.8333339325
 20
-466.2241948532
 10
1084.2010081941
 20
-474.2991872478
 10
1085.3219359682
 20
-482.5626892344
 10
1086.1949654259
 20
-491.006209506
 10
1086.8191994702
 20
-499.621071775
 10
1087.1939966586
 20
-508.3984236879
 10
1087.3189718615
 20
-517.3292459223
  0
LWPOLYLINE
  5
23B
330
1F
100
AcDbEntity
  8
0
  6
Continuous
 62
     1
370
    25
100
AcDbPolyline
 90
       18
 70
   128
 43
0.0
 10
1117.7245634525
 20
-534.8820203265
 10
1117.5995882496
 20
-525.9511980921
 10
1117.2247910612
 20
-517.1738461792
 10
1116.6005570169
 20
-508.5589839102
 10
1115.7275275593
 20
-500.1154636385
 10
1114.6065997851
 20
-491.851961652
 10
1113.2389255235
 20
-483.7769692574
 10
1111.6259101523
 20
-475.8987840554
 10
1109.7692111536
 20
-468.2255014138
 10
1107.6707364114
 20
-460.7650061493
 10
1105.3326422501
 20
-453.5249644249
 10
1102.7573312197
 20
-446.5128158731
 10
1099.9474496263
 20
-439.7357659504
 10
1096.9058848131
 20
-433.2007785338
 10
1093.6357621937
 20
-426.9145687646
 10
1090.14044204
 20
-420.8835961483
 10
1086.4235160299
 20
-415.1140579169
 10
1085.743018707
 20
-414.1208188774
  0
LWPOLYLINE
  5
23C
330
1F
100
AcDbEntity
  8
0
  6
Continuous
 62
     1
370
    25
100
AcDbPolyline
 90
       67
 70
   128
 43
0.0
 10
753.0721025178
 20
-988.7922464944
 10
755.1153709421
 20
-988.9565964862
 10
761.9698279382
 20
-989.2917716556
 10
768.9398965676
 20
-989.304303386
 10
776.0184146137
 20
-988.9941788002
 10
783.1981084208
 20
-988.3617165721
 10
790.471600368
 20
-987.4075665995
 10
797.8314164508
 20
-986.132709336
 10
805.2699939605
 20
-984.5384547835
 10
812.779689256
 20
-982.6264411464
 10
820.3527856177
 20
-980.3986331479
 10
827.9815011772
 20
-977.8573200114
 10
835.6579969135
 20
-975.005113108
 10
843.3743847084
 20
-971.8449432729
 10
851.1227354517
 20
-968.3800577943
 10
858.8950871893
 20
-964.6140170764
 10
866.6834533044
 20
-960.5506909804
 10
874.4798307244
 20
-956.1942548487
 10
882.2762081443
 20
-951.5491852138
 10
890.0645742594
 20
-946.6202551988
 10
897.836925997
 20
-941.4125296125
 10
905.5852767404
 20
-935.9313597449
 10
913.3016645352
 20
-930.1823778687
 10
920.9781602715
 20
-924.1714914513
 10
928.606875831
 20
-917.9048770848
 10
936.1799721927
 20
-911.3889741391
 10
943.6896674882
 20
-904.630478145
 10
951.128244998
 20
-897.636333914
 10
958.4880610807
 20
-890.4137284019
 10
965.761553028
 20
-882.9700833244
 10
972.941246835
 20
-875.3130475298
 10
980.0197648811
 20
-867.45048914
 10
986.9898335105
 20
-859.3904874652
 10
993.8442905066
 20
-851.1413247022
 10
1000.5760924513
 20
-842.7114774231
 10
1007.1783219632
 20
-834.1096078659
 10
1013.6441948051
 20
-825.3445550332
 10
1019.9670668556
 20
-816.4253256091
 10
1026.1404409362
 20
-807.3610847048
 10
1032.1579734878
 20
-798.1611464407
 10
1038.0134810889
 20
-788.8349643751
 10
1043.7009468096
 20
-779.3921217905
 10
1049.2145263943
 20
-769.8423218462
 10
1054.5485542675
 20
-760.1953776069
 10
1059.6975493548
 20
-750.4612019601
 10
1064.6562207158
 20
-740.6497974293
 10
1069.4194729804
 20
-730.7712458959
 10
1073.9824115849
 20
-720.8356982393
 10
1078.3403478014
 20
-710.8533639063
 10
1082.488803556
 20
-700.8345004204
 10
1086.4235160299
 20
-690.789402841
 10
1090.14044204
 20
-680.7283931848
 10
1093.6357621937
 20
-670.6618098195
 10
1096.9058848131
 20
-660.5999968399
 10
1099.9474496263
 20
-650.553293439
 10
1102.7573312197
 20
-640.5320232838
 10
1105.3326422501
 20
-630.5464839066
 10
1107.6707364114
 20
-620.6069361243
 10
1109.7692111536
 20
-610.723593494
 10
1111.6259101523
 20
-600.9066118185
 10
1113.2389255235
 20
-591.16607871
 10
1114.6065997851
 20
-581.5120032248
 10
1115.7275275593
 20
-571.9543055779
 10
1116.6005570169
 20
-562.5028069499
 10
1117.2247910612
 20
-553.1672193944
 10
1117.5995882496
 20
-543.9571358588
 10
1117.7245634525
 20
-534.8820203265
  0
LWPOLYLINE
  5
23D
330
1F
100
AcDbEntity
  8
0
  6
Continuous
 62
     1
370
    25
100
AcDbPolyline
 90
       75
 70
   128
 43
0.0
 10
941.2781268479
 20
-415.2131095822
 10
937.3066376672
 20
-414.8202052265
 10
931.2986969624
 20
-414.5039346676
 10
925.1757138215
 20
-414.5084890979
 10
918.9457639943
 20
-414.8338625104
 10
912.6170643114
 20
-415.4796257623
 10
906.1979618471
 20
-416.4449271409
 10
899.6969229101
 20
-417.728493487
 10
893.1225218772
 20
-419.328631874
 10
886.483429884
 20
-421.243231841
 10
879.7884033887
 20
-423.469768176
 10
873.0462726228
 20
-426.0053042466
 10
866.2659299448
 20
-428.8464958732
 10
859.4563181119
 20
-431.98959574
 10
852.6264184849
 20
-435.4304583368
 10
845.7852391827
 20
-439.1645454272
 10
838.9418032015
 20
-443.1869320339
 10
832.1051365134
 20
-447.4923129344
 10
825.2842561629
 20
-452.0750096582
 10
818.4881583729
 20
-456.9289779763
 10
811.7258066805
 20
-462.0478158732
 10
805.0061201141
 20
-467.4247719904
 10
798.3379614298
 20
-473.052754531
 10
791.7301254227
 20
-478.9243406135
 10
785.1913273266
 20
-485.0317860618
 10
778.7301913197
 20
-491.367035619
 10
772.3552391497
 20
-497.9217335722
 10
766.0748788944
 20
-504.6872347723
 10
759.8973938722
 20
-511.6546160372
 10
753.8309317165
 20
-518.8146879201
 10
747.8834936304
 20
-526.1580068298
 10
742.0629238331
 20
-533.6748874863
 10
736.376899214
 20
-541.3554156949
 10
730.8329192078
 20
-549.1894614222
 10
725.4382959033
 20
-557.1666921566
 10
720.2001443988
 20
-565.2765865367
 10
715.1253734184
 20
-573.5084482277
 10
710.2206761997
 20
-581.851420029
 10
705.4925216659
 20
-590.2944981944
 10
700.9471458937
 20
-598.826546945
 10
696.5905438886
 20
-607.4363131564
 10
692.4284616778
 20
-616.1124412008
 10
688.4663887317
 20
-624.8434879241
 10
684.7095507236
 20
-633.6179377387
 10
681.1629026376
 20
-642.4242178117
 10
677.8311222331
 20
-651.2507133283
 10
674.7186038756
 20
-660.0857828113
 10
671.8294527404
 20
-668.9177734749
 10
669.1674793983
 20
-677.7350365941
 10
666.7361947902
 20
-686.5259428685
 10
664.5388055957
 20
-695.2788977602
 10
662.5782100044
 20
-703.9823567864
 10
660.856993893
 20
-712.6248407457
 10
659.3774274147
 20
-721.1949508579
 10
658.1414620055
 20
-729.6813837986
 10
657.1507278098
 20
-738.0729466072
 10
656.4065315309
 20
-746.3585714496
 10
655.909854707
 20
-754.5273302159
 10
655.6613524172
 20
-762.5684489335
 10
655.6613524172
 20
-770.4713219776
 10
655.909854707
 20
-778.2255260586
 10
656.4065315309
 20
-785.8208339703
 10
657.1507278098
 20
-793.2472280783
 10
658.1414620055
 20
-800.4949135327
 10
659.3774274147
 20
-807.5543311868
 10
660.856993893
 20
-814.4161702048
 10
662.5782100044
 20
-821.071380342
 10
664.5388055957
 20
-827.5111838818
 10
666.7361947902
 20
-833.7270872123
 10
669.1674793983
 20
-839.7108920289
 10
671.8294527404
 20
-845.4547061476
 10
674.7186038756
 20
-850.9509539137
 10
677.8311222331
 20
-856.1923861938
 10
681.1629026376
 20
-861.1720899367
 10
682.8081005484
 20
-863.4265952406
  0
LWPOLYLINE
  5
23E
330
1F
100
AcDbEntity
  8
0
  6
Continuous
 62
     1
370
    25
100
AcDbPolyline
 90
       75
 70
   128
 43
0.0
 10
711.4764758919
 20
-878.5950137963
 10
708.2367138242
 20
-873.745160598
 10
705.1241954666
 20
-868.5037283179
 10
702.2350443314
 20
-863.0074805518
 10
699.5730709893
 20
-857.2636664331
 10
697.1417863812
 20
-851.2798616164
 10
694.9443971867
 20
-845.063958286
 10
692.9838015954
 20
-838.6241547462
 10
691.262585484
 20
-831.968944609
 10
689.7830190057
 20
-825.107105591
 10
688.5470535965
 20
-818.0476879369
 10
687.5563194008
 20
-810.8000024825
 10
686.8121231219
 20
-803.3736083745
 10
686.315446298
 20
-795.7783004628
 10
686.0669440083
 20
-788.0240963818
 10
686.0669440083
 20
-780.1212233377
 10
686.315446298
 20
-772.0801046201
 10
686.8121231219
 20
-763.9113458538
 10
687.5563194008
 20
-755.6257210114
 10
688.5470535965
 20
-747.2341582027
 10
689.7830190057
 20
-738.747725262
 10
691.262585484
 20
-730.1776151499
 10
692.9838015954
 20
-721.5351311906
 10
694.9443971867
 20
-712.8316721644
 10
697.1417863812
 20
-704.0787172727
 10
699.5730709893
 20
-695.2878109983
 10
702.2350443314
 20
-686.4705478791
 10
705.1241954666
 20
-677.6385572155
 10
708.2367138242
 20
-668.8034877325
 10
711.5684942286
 20
-659.9769922159
 10
715.1151423146
 20
-651.1707121429
 10
718.8719803227
 20
-642.3962623283
 10
722.8340532688
 20
-633.665215605
 10
726.9961354796
 20
-624.9890875606
 10
731.3527374847
 20
-616.3793213492
 10
735.8981132569
 20
-607.8472725986
 10
740.6262677907
 20
-599.4041944332
 10
745.5309650094
 20
-591.0612226319
 10
750.6057359898
 20
-582.8293609409
 10
755.8438874943
 20
-574.7194665608
 10
761.2385107988
 20
-566.7422358263
 10
766.782490805
 20
-558.9081900991
 10
772.4685154241
 20
-551.2276618905
 10
778.2890852215
 20
-543.7107812339
 10
784.2365233076
 20
-536.3674623243
 10
790.3029854632
 20
-529.2073904414
 10
796.4804704855
 20
-522.2400091765
 10
802.7608307407
 20
-515.4745079763
 10
809.1357829107
 20
-508.9198100232
 10
815.5969189176
 20
-502.584560466
 10
822.1357170137
 20
-496.4771150177
 10
828.7435530208
 20
-490.6055289352
 10
835.4117117051
 20
-484.9775463946
 10
842.1313982716
 20
-479.6005902774
 10
848.8937499639
 20
-474.4817523805
 10
855.6898477539
 20
-469.6277840623
 10
862.5107281045
 20
-465.0450873386
 10
869.3473947925
 20
-460.7397064381
 10
876.1908307738
 20
-456.7173198314
 10
883.0320100759
 20
-452.983232741
 10
889.8619097029
 20
-449.5423701442
 10
896.6715215358
 20
-446.3992702774
 10
903.4518642138
 20
-443.5580786507
 10
910.1939949797
 20
-441.0225425802
 10
916.889021475
 20
-438.7960062452
 10
923.5281134682
 20
-436.8814062782
 10
930.1025145012
 20
-435.2812678912
 10
936.6035534381
 20
-433.9977015451
 10
943.0226559024
 20
-433.0324001665
 10
949.3513555853
 20
-432.3866369146
 10
955.5813054126
 20
-432.0612635021
 10
961.7042885535
 20
-432.0567090718
 10
967.7122292582
 20
-432.3729796307
 10
973.5972035092
 20
-433.0096580419
 10
973.6769347171
 20
-433.0206015969
  0
LWPOLYLINE
  5
23F
330
1F
100
AcDbEntity
  8
0
  6
Continuous
 62
     1
370
    25
100
AcDbPolyline
 90
       21
 70
   128
 43
0.0
 10
1027.912745769
 20
-692.901860847
 10
1027.6391091037
 20
-692.7566661675
 10
1026.4410337772
 20
-692.3714843772
 10
1025.1058142705
 20
-692.3078760939
 10
1023.6698718911
 20
-692.5675763857
 10
1022.172375404
 20
-693.1435013057
 10
1020.6541726096
 20
-694.0199411233
 10
1019.1566761225
 20
-695.1729888452
 10
1017.7207337432
 20
-696.5711923351
 10
1016.3855142365
 20
-698.1764122467
 10
1015.1874389099
 20
-699.9448623653
 10
1014.1591881353
 20
-701.8283039818
 10
1013.3288099132
 20
-703.7753617185
 10
1012.718954797
 20
-705.732924916
 10
1012.3462580445
 20
-707.6475963533
 10
1012.2208858514
 20
-709.4671487848
 10
1012.3462580445
 20
-711.1419495632
 10
1012.718954797
 20
-712.6263144893
 10
1013.3288099132
 20
-713.8797539574
 10
1014.1591881353
 20
-714.8680774061
 10
1014.9652249865
 20
-715.4483509964
  0
LWPOLYLINE
  5
240
330
1F
100
AcDbEntity
  8
0
  6
Continuous
 62
     1
370
    25
100
AcDbPolyline
 90
       21
 70
   128
 43
0.0
 10
979.4180616065
 20
-776.8971174669
 10
979.1444249412
 20
-776.7519227874
 10
977.9463496147
 20
-776.3667409971
 10
976.611130108
 20
-776.3031327138
 10
975.1751877287
 20
-776.5628330056
 10
973.6776912415
 20
-777.1387579256
 10
972.1594884471
 20
-778.0151977432
 10
970.66199196
 20
-779.1682454651
 10
969.2260495807
 20
-780.566448955
 10
967.890830074
 20
-782.1716688666
 10
966.6927547474
 20
-783.9401189852
 10
965.6645039728
 20
-785.8235606017
 10
964.8341257507
 20
-787.7706183384
 10
964.2242706345
 20
-789.7281815359
 10
963.851573882
 20
-791.6428529732
 10
963.7262016889
 20
-793.4624054047
 10
963.851573882
 20
-795.1372061831
 10
964.2242706345
 20
-796.6215711092
 10
964.8341257507
 20
-797.8750105773
 10
965.6645039728
 20
-798.863334026
 10
966.470540824
 20
-799.4436076163
  0
LWPOLYLINE
  5
241
330
1F
100
AcDbEntity
  8
0
  6
Continuous
 62
     1
370
    25
100
AcDbPolyline
 90
       21
 70
   128
 43
0.0
 10
1059.0482496043
 20
-604.3637625824
 10
1058.7746129391
 20
-604.2185679029
 10
1057.5765376125
 20
-603.8333861126
 10
1056.2413181058
 20
-603.7697778292
 10
1054.8053757265
 20
-604.0294781211
 10
1053.3078792394
 20
-604.605403041
 10
1051.789676445
 20
-605.4818428587
 10
1050.2921799579
 20
-606.6348905805
 10
1048.8562375785
 20
-608.0330940704
 10
1047.5210180718
 20
-609.6383139821
 10
1046.3229427453
 20
-611.4067641007
 10
1045.2946919706
 20
-613.2902057172
 10
1044.4643137486
 20
-615.2372634539
 10
1043.8544586324
 20
-617.1948266514
 10
1043.4817618798
 20
-619.1094980887
 10
1043.3563896868
 20
-620.9290505201
 10
1043.4817618798
 20
-622.6038512986
 10
1043.8544586324
 20
-624.0882162247
 10
1044.4643137486
 20
-625.3416556928
 10
1045.2946919706
 20
-626.3299791415
 10
1046.1007288218
 20
-626.9102527318
  0
LWPOLYLINE
  5
242
330
1F
100
AcDbEntity
  8
0
  6
Continuous
 62
     1
370
    25
100
AcDbPolyline
 90
       21
 70
   128
 43
0.0
 10
918.311194685
 20
-848.1274914947
 10
918.0375580198
 20
-847.9822968153
 10
916.8394826932
 20
-847.597115025
 10
915.5042631866
 20
-847.5335067416
 10
914.0683208072
 20
-847.7932070334
 10
912.5708243201
 20
-848.3691319534
 10
911.0526215257
 20
-849.2455717711
 10
909.5551250386
 20
-850.3986194929
 10
908.1191826592
 20
-851.7968229828
 10
906.7839631525
 20
-853.4020428945
 10
905.585887826
 20
-855.1704930131
 10
904.5576370513
 20
-857.0539346296
 10
903.7272588293
 20
-859.0009923663
 10
903.1174037131
 20
-860.9585555638
 10
902.7447069605
 20
-862.8732270011
 10
902.6193347675
 20
-864.6927794325
 10
902.7447069605
 20
-866.367580211
 10
903.1174037131
 20
-867.8519451371
 10
903.7272588293
 20
-869.1053846051
 10
904.5576370513
 20
-870.0937080539
 10
905.3636739025
 20
-870.6739816442
  0
LWPOLYLINE
  5
243
330
1F
100
AcDbEntity
  8
0
  6
Continuous
 62
     1
370
    25
100
AcDbPolyline
 90
       21
 70
   128
 43
0.0
 10
1069.7768130633
 20
-519.9495486124
 10
1069.5031763981
 20
-519.8043539329
 10
1068.3051010715
 20
-519.4191721426
 10
1066.9698815649
 20
-519.3555638593
 10
1065.5339391855
 20
-519.6152641511
 10
1064.0364426984
 20
-520.1911890711
 10
1062.518239904
 20
-521.0676288887
 10
1061.0207434169
 20
-522.2206766105
 10
1059.5848010375
 20
-523.6188801005
 10
1058.2495815308
 20
-525.2241000121
 10
1057.0515062043
 20
-526.9925501307
 10
1056.0232554296
 20
-528.8759917472
 10
1055.1928772076
 20
-530.8230494839
 10
1054.5830220914
 20
-532.7806126814
 10
1054.2103253388
 20
-534.6952841187
 10
1054.0849531458
 20
-536.5148365502
 10
1054.2103253388
 20
-538.1896373286
 10
1054.5830220914
 20
-539.6740022547
 10
1055.1928772076
 20
-540.9274417228
 10
1056.0232554296
 20
-541.9157651715
 10
1056.8292922808
 20
-542.4960387618
  0
LWPOLYLINE
  5
244
330
1F
100
AcDbEntity
  8
0
  6
Continuous
 62
     1
370
    25
100
AcDbPolyline
 90
       21
 70
   128
 43
0.0
 10
850.5737108954
 20
-899.6204576295
 10
850.3000742302
 20
-899.4752629501
 10
849.1019989037
 20
-899.0900811598
 10
847.766779397
 20
-899.0264728764
 10
846.3308370176
 20
-899.2861731682
 10
844.8333405305
 20
-899.8620980882
 10
843.3151377361
 20
-900.7385379059
 10
841.817641249
 20
-901.8915856277
 10
840.3816988696
 20
-903.2897891176
 10
839.0464793629
 20
-904.8950090292
 10
837.8484040364
 20
-906.6634591479
 10
836.8201532618
 20
-908.5469007644
 10
835.9897750397
 20
-910.4939585011
 10
835.3799199235
 20
-912.4515216986
 10
835.0072231709
 20
-914.3661931359
 10
834.8818509779
 20
-916.1857455673
 10
835.0072231709
 20
-917.8605463458
 10
835.3799199235
 20
-919.3449112719
 10
835.9897750397
 20
-920.5983507399
 10
836.8201532618
 20
-921.5866741887
 10
837.626190113
 20
-922.1669477789
  0
LWPOLYLINE
  5
245
330
1F
100
AcDbEntity
  8
0
  6
Continuous
 62
     1
370
    25
100
AcDbPolyline
 90
       21
 70
   128
 43
0.0
 10
1059.0482496043
 20
-447.9222703488
 10
1058.7746129391
 20
-447.7770756694
 10
1057.5765376125
 20
-447.391893879
 10
1056.2413181059
 20
-447.3282855957
 10
1054.8053757265
 20
-447.5879858875
 10
1053.3078792394
 20
-448.1639108075
 10
1051.789676445
 20
-449.0403506252
 10
1050.2921799579
 20
-450.193398347
 10
1048.8562375785
 20
-451.5916018369
 10
1047.5210180718
 20
-453.1968217485
 10
1046.3229427453
 20
-454.9652718672
 10
1045.2946919706
 20
-456.8487134836
 10
1044.4643137486
 20
-458.7957712204
 10
1043.8544586324
 20
-460.7533344179
 10
1043.4817618798
 20
-462.6680058552
 10
1043.3563896868
 20
-464.4875582866
 10
1043.4817618798
 20
-466.162359065
 10
1043.8544586324
 20
-467.6467239912
 10
1044.4643137486
 20
-468.9001634592
 10
1045.2946919706
 20
-469.888486908
 10
1046.1007288218
 20
-470.4687604982
  0
LWPOLYLINE
  5
246
330
1F
100
AcDbEntity
  8
0
  6
Continuous
 62
     1
370
    25
100
AcDbPolyline
 90
       21
 70
   128
 43
0.0
 10
782.8362271059
 20
-926.3355255734
 10
782.5625904406
 20
-926.1903308939
 10
781.3645151141
 20
-925.8051491036
 10
780.0292956074
 20
-925.7415408203
 10
778.593353228
 20
-926.0012411121
 10
777.0958567409
 20
-926.5771660321
 10
775.5776539465
 20
-927.4536058497
 10
774.0801574594
 20
-928.6066535715
 10
772.6442150801
 20
-930.0048570614
 10
771.3089955734
 20
-931.6100769731
 10
770.1109202468
 20
-933.3785270917
 10
769.0826694722
 20
-935.2619687082
 10
768.2522912501
 20
-937.2090264449
 10
767.6424361339
 20
-939.1665896424
 10
767.2697393814
 20
-941.0812610797
 10
767.1443671883
 20
-942.9008135112
 10
767.2697393814
 20
-944.5756142896
 10
767.6424361339
 20
-946.0599792157
 10
768.2522912501
 20
-947.3134186838
 10
769.0826694722
 20
-948.3017421325
 10
769.8887063234
 20
-948.8820157228
  0
LWPOLYLINE
  5
247
330
1F
100
AcDbEntity
  8
0
  6
Continuous
 62
     1
370
    25
100
AcDbPolyline
 90
       21
 70
   128
 43
0.0
 10
1027.912745769
 20
-395.3324596317
 10
1027.6391091037
 20
-395.1872649522
 10
1026.4410337772
 20
-394.8020831619
 10
1025.1058142705
 20
-394.7384748786
 10
1023.6698718912
 20
-394.9981751704
 10
1022.172375404
 20
-395.5741000904
 10
1020.6541726096
 20
-396.450539908
 10
1019.1566761225
 20
-397.6035876298
 10
1017.7207337432
 20
-399.0017911198
 10
1016.3855142365
 20
-400.6070110314
 10
1015.1874389099
 20
-402.37546115
 10
1014.1591881353
 20
-404.2589027665
 10
1013.3288099132
 20
-406.2059605032
 10
1012.718954797
 20
-408.1635237007
 10
1012.3462580445
 20
-410.078195138
 10
1012.2208858514
 20
-411.8977475695
 10
1012.3462580445
 20
-413.5725483479
 10
1012.718954797
 20
-415.056913274
 10
1013.3288099132
 20
-416.3103527421
 10
1014.1591881353
 20
-417.2986761908
 10
1014.9652249865
 20
-417.8789497811
  0
LWPOLYLINE
  5
248
330
1F
100
AcDbEntity
  8
0
  6
Continuous
 62
     1
370
    25
100
AcDbPolyline
 90
       21
 70
   128
 43
0.0
 10
721.7293601844
 20
-925.6576383411
 10
721.4557235192
 20
-925.5124436616
 10
720.2576481926
 20
-925.1272618713
 10
718.9224286859
 20
-925.063653588
 10
717.4864863066
 20
-925.3233538798
 10
715.9889898195
 20
-925.8992787998
 10
714.4707870251
 20
-926.7757186174
 10
712.973290538
 20
-927.9287663393
 10
711.5373481586
 20
-929.3269698292
 10
710.2021286519
 20
-930.9321897408
 10
709.0040533254
 20
-932.7006398595
 10
707.9758025507
 20
-934.5840814759
 10
707.1454243287
 20
-936.5311392126
 10
706.5355692125
 20
-938.4887024102
 10
706.1628724599
 20
-940.4033738475
 10
706.0375002669
 20
-942.2229262789
 10
706.1628724599
 20
-943.8977270573
 10
706.5355692125
 20
-945.3820919834
 10
707.1454243287
 20
-946.6355314515
 10
707.9758025507
 20
-947.6238549003
 10
708.7818394019
 20
-948.2041284905
  0
LWPOLYLINE
  5
249
330
1F
100
AcDbEntity
  8
0
  6
Continuous
 62
     1
370
    25
100
AcDbPolyline
 90
       21
 70
   128
 43
0.0
 10
979.4180616065
 20
-367.3279735487
 10
979.1444249413
 20
-367.1827788692
 10
977.9463496147
 20
-366.7975970789
 10
976.611130108
 20
-366.7339887956
 10
975.1751877287
 20
-366.9936890874
 10
973.6776912416
 20
-367.5696140074
 10
972.1594884472
 20
-368.446053825
 10
970.66199196
 20
-369.5991015469
 10
969.2260495807
 20
-370.9973050368
 10
967.890830074
 20
-372.6025249484
 10
966.6927547475
 20
-374.3709750671
 10
965.6645039728
 20
-376.2544166835
 10
964.8341257508
 20
-378.2014744202
 10
964.2242706346
 20
-380.1590376178
 10
963.851573882
 20
-382.0737090551
 10
963.7262016889
 20
-383.8932614865
 10
963.851573882
 20
-385.5680622649
 10
964.2242706346
 20
-387.052427191
 10
964.8341257508
 20
-388.3058666591
 10
965.6645039728
 20
-389.2941901079
 10
966.470540824
 20
-389.8744636981
  0
LWPOLYLINE
  5
24A
330
1F
100
AcDbEntity
  8
0
  6
Continuous
 62
     1
370
    25
100
AcDbPolyline
 90
       21
 70
   128
 43
0.0
 10
673.2346760219
 20
-897.6531522581
 10
672.9610393567
 20
-897.5079575787
 10
671.7629640302
 20
-897.1227757883
 10
670.4277445235
 20
-897.059167505
 10
668.9918021441
 20
-897.3188677968
 10
667.494305657
 20
-897.8947927168
 10
665.9761028626
 20
-898.7712325345
 10
664.4786063755
 20
-899.9242802563
 10
663.0426639961
 20
-901.3224837462
 10
661.7074444894
 20
-902.9277036578
 10
660.5093691629
 20
-904.6961537765
 10
659.4811183883
 20
-906.5795953929
 10
658.6507401662
 20
-908.5266531297
 10
658.04088505
 20
-910.4842163272
 10
657.6681882974
 20
-912.3988877645
 10
657.5428161044
 20
-914.2184401959
 10
657.6681882974
 20
-915.8932409744
 10
658.04088505
 20
-917.3776059005
 10
658.6507401662
 20
-918.6310453685
 10
659.4811183883
 20
-919.6193688173
 10
660.2871552395
 20
-920.1996424075
  0
LWPOLYLINE
  5
24B
330
1F
100
AcDbEntity
  8
0
  6
Continuous
 62
     1
370
    25
100
AcDbPolyline
 90
       21
 70
   128
 43
0.0
 10
918.3111946851
 20
-366.6500863164
 10
918.0375580198
 20
-366.504891637
 10
916.8394826933
 20
-366.1197098466
 10
915.5042631866
 20
-366.0561015633
 10
914.0683208072
 20
-366.3158018551
 10
912.5708243201
 20
-366.8917267751
 10
911.0526215257
 20
-367.7681665928
 10
909.5551250386
 20
-368.9212143146
 10
908.1191826593
 20
-370.3194178045
 10
906.7839631526
 20
-371.9246377161
 10
905.585887826
 20
-373.6930878348
 10
904.5576370514
 20
-375.5765294512
 10
903.7272588293
 20
-377.523587188
 10
903.1174037131
 20
-379.4811503855
 10
902.7447069606
 20
-381.3958218228
 10
902.6193347675
 20
-383.2153742542
 10
902.7447069606
 20
-384.8901750327
 10
903.1174037131
 20
-386.3745399588
 10
903.7272588293
 20
-387.6279794268
 10
904.5576370514
 20
-388.6163028756
 10
905.3636739026
 20
-389.1965764658
  0
LWPOLYLINE
  5
24C
330
1F
100
AcDbEntity
  8
0
  6
Continuous
 62
     1
370
    25
100
AcDbPolyline
 90
       21
 70
   128
 43
0.0
 10
642.0991721866
 20
-845.063341541
 10
641.8255355214
 20
-844.9181468615
 10
640.6274601948
 20
-844.5329650712
 10
639.2922406881
 20
-844.4693567879
 10
637.8562983088
 20
-844.7290570797
 10
636.3588018217
 20
-845.3049819997
 10
634.8405990273
 20
-846.1814218173
 10
633.3431025401
 20
-847.3344695392
 10
631.9071601608
 20
-848.7326730291
 10
630.5719406541
 20
-850.3378929407
 10
629.3738653276
 20
-852.1063430593
 10
628.3456145529
 20
-853.9897846758
 10
627.5152363309
 20
-855.9368424125
 10
626.9053812147
 20
-857.89440561
 10
626.5326844621
 20
-859.8090770473
 10
626.407312269
 20
-861.6286294788
 10
626.5326844621
 20
-863.3034302572
 10
626.9053812147
 20
-864.7877951833
 10
627.5152363309
 20
-866.0412346514
 10
628.3456145529
 20
-867.0295581001
 10
629.1516514041
 20
-867.6098316904
  0
LWPOLYLINE
  5
24D
330
1F
100
AcDbEntity
  8
0
  6
Continuous
 62
     1
370
    25
100
AcDbPolyline
 90
       21
 70
   128
 43
0.0
 10
850.5737108955
 20
-393.3651542602
 10
850.3000742302
 20
-393.2199595808
 10
849.1019989037
 20
-392.8347777905
 10
847.766779397
 20
-392.7711695071
 10
846.3308370177
 20
-393.030869799
 10
844.8333405305
 20
-393.6067947189
 10
843.3151377361
 20
-394.4832345366
 10
841.817641249
 20
-395.6362822584
 10
840.3816988697
 20
-397.0344857483
 10
839.046479363
 20
-398.63970566
 10
837.8484040364
 20
-400.4081557786
 10
836.8201532618
 20
-402.2915973951
 10
835.9897750397
 20
-404.2386551318
 10
835.3799199235
 20
-406.1962183293
 10
835.007223171
 20
-408.1108897666
 10
834.8818509779
 20
-409.930442198
 10
835.007223171
 20
-411.6052429765
 10
835.3799199235
 20
-413.0896079026
 10
835.9897750397
 20
-414.3430473707
 10
836.8201532618
 20
-415.3313708194
 10
837.626190113
 20
-415.9116444097
  0
LWPOLYLINE
  5
24E
330
1F
100
AcDbEntity
  8
0
  6
Continuous
 62
     1
370
    25
100
AcDbPolyline
 90
       21
 70
   128
 43
0.0
 10
631.3706087276
 20
-773.0360632774
 10
631.0969720624
 20
-772.890868598
 10
629.8988967358
 20
-772.5056868076
 10
628.5636772291
 20
-772.4420785243
 10
627.1277348498
 20
-772.7017788161
 10
625.6302383627
 20
-773.2777037361
 10
624.1120355683
 20
-774.1541435538
 10
622.6145390811
 20
-775.3071912756
 10
621.1785967018
 20
-776.7053947655
 10
619.8433771951
 20
-778.3106146771
 10
618.6453018686
 20
-780.0790647958
 10
617.6170510939
 20
-781.9625064122
 10
616.7866728719
 20
-783.909564149
 10
616.1768177557
 20
-785.8671273465
 10
615.8041210031
 20
-787.7817987838
 10
615.67874881
 20
-789.6013512152
 10
615.8041210031
 20
-791.2761519936
 10
616.1768177557
 20
-792.7605169198
 10
616.7866728719
 20
-794.0139563878
 10
617.6170510939
 20
-795.0022798366
 10
618.4230879451
 20
-795.5825534268
  0
LWPOLYLINE
  5
24F
330
1F
100
AcDbEntity
  8
0
  6
Continuous
 62
     1
370
    25
100
AcDbPolyline
 90
       21
 70
   128
 43
0.0
 10
782.8362271059
 20
-444.858120395
 10
782.5625904407
 20
-444.7129257156
 10
781.3645151141
 20
-444.3277439253
 10
780.0292956074
 20
-444.2641356419
 10
778.5933532281
 20
-444.5238359337
 10
777.095856741
 20
-445.0997608537
 10
775.5776539466
 20
-445.9762006714
 10
774.0801574594
 20
-447.1292483932
 10
772.6442150801
 20
-448.5274518831
 10
771.3089955734
 20
-450.1326717948
 10
770.1109202469
 20
-451.9011219134
 10
769.0826694722
 20
-453.7845635299
 10
768.2522912502
 20
-455.7316212666
 10
767.642436134
 20
-457.6891844641
 10
767.2697393814
 20
-459.6038559014
 10
767.1443671883
 20
-461.4234083328
 10
767.2697393814
 20
-463.0982091113
 10
767.642436134
 20
-464.5825740374
 10
768.2522912502
 20
-465.8360135054
 10
769.0826694722
 20
-466.8243369542
 10
769.8887063234
 20
-467.4046105445
  0
LWPOLYLINE
  5
250
330
1F
100
AcDbEntity
  8
0
  6
Continuous
 62
     1
370
    25
100
AcDbPolyline
 90
       21
 70
   128
 43
0.0
 10
642.0991721866
 20
-688.6218493074
 10
641.8255355214
 20
-688.476654628
 10
640.6274601948
 20
-688.0914728376
 10
639.2922406881
 20
-688.0278645543
 10
637.8562983088
 20
-688.2875648461
 10
636.3588018217
 20
-688.8634897661
 10
634.8405990273
 20
-689.7399295838
 10
633.3431025401
 20
-690.8929773056
 10
631.9071601608
 20
-692.2911807955
 10
630.5719406541
 20
-693.8964007071
 10
629.3738653276
 20
-695.6648508258
 10
628.3456145529
 20
-697.5482924422
 10
627.5152363309
 20
-699.495350179
 10
626.9053812147
 20
-701.4529133765
 10
626.5326844621
 20
-703.3675848138
 10
626.407312269
 20
-705.1871372452
 10
626.5326844621
 20
-706.8619380237
 10
626.9053812147
 20
-708.3463029498
 10
627.5152363309
 20
-709.5997424178
 10
628.3456145529
 20
-710.5880658666
 10
629.1516514041
 20
-711.1683394568
  0
LWPOLYLINE
  5
251
330
1F
100
AcDbEntity
  8
0
  6
Continuous
 62
     1
370
    25
100
AcDbPolyline
 90
       21
 70
   128
 43
0.0
 10
721.7293601844
 20
-516.0884944229
 10
721.4557235192
 20
-515.9432997435
 10
720.2576481927
 20
-515.5581179531
 10
718.922428686
 20
-515.4945096698
 10
717.4864863066
 20
-515.7542099616
 10
715.9889898195
 20
-516.3301348816
 10
714.4707870251
 20
-517.2065746993
 10
712.973290538
 20
-518.3596224211
 10
711.5373481586
 20
-519.757825911
 10
710.202128652
 20
-521.3630458226
 10
709.0040533254
 20
-523.1314959413
 10
707.9758025508
 20
-525.0149375577
 10
707.1454243287
 20
-526.9619952944
 10
706.5355692125
 20
-528.919558492
 10
706.1628724599
 20
-530.8342299293
 10
706.0375002669
 20
-532.6537823607
 10
706.1628724599
 20
-534.3285831391
 10
706.5355692125
 20
-535.8129480653
 10
707.1454243287
 20
-537.0663875333
 10
707.9758025508
 20
-538.0547109821
 10
708.781839402
 20
-538.6349845723
  0
LWPOLYLINE
  5
252
330
1F
100
AcDbEntity
  8
0
  6
Continuous
 62
     1
370
    25
100
AcDbPolyline
 90
       21
 70
   128
 43
0.0
 10
673.234676022
 20
-600.0837510428
 10
672.9610393567
 20
-599.9385563634
 10
671.7629640302
 20
-599.553374573
 10
670.4277445235
 20
-599.4897662897
 10
668.9918021441
 20
-599.7494665815
 10
667.494305657
 20
-600.3253915015
 10
665.9761028626
 20
-601.2018313192
 10
664.4786063755
 20
-602.354879041
 10
663.0426639962
 20
-603.7530825309
 10
661.7074444895
 20
-605.3583024425
 10
660.5093691629
 20
-607.1267525612
 10
659.4811183883
 20
-609.0101941776
 10
658.6507401662
 20
-610.9572519143
 10
658.04088505
 20
-612.9148151119
 10
657.6681882975
 20
-614.8294865492
 10
657.5428161044
 20
-616.6490389806
 10
657.6681882975
 20
-618.323839759
 10
658.04088505
 20
-619.8082046852
 10
658.6507401662
 20
-621.0616441532
 10
659.4811183883
 20
-622.049967602
 10
660.2871552395
 20
-622.6302411922
  0
ENDSEC
  0
SECTION
  2
OBJECTS
  0
DICTIONARY
  5
C
330
0
100
AcDbDictionary
281
     1
  3
ACAD_GROUP
350
D
  3
ACAD_LAYOUT
350
1A
  3
ACAD_MLINESTYLE
350
17
  3
ACAD_PLOTSETTINGS
350
19
  3
ACAD_PLOTSTYLENAME
350
E
  3
ACAD_SCALELIST
350
47
  3
DWGPROPS
350
253
  0
DICTIONARY
  5
D
102
{ACAD_REACTORS
330
C
102
}
330
C
100
AcDbDictionary
281
     1
  0
DICTIONARY
  5
1A
102
{ACAD_REACTORS
330
C
102
}
330
C
100
AcDbDictionary
281
     1
  3
Layout1
350
1E
  3
Layout2
350
26
  3
Model
350
22
  0
DICTIONARY
  5
17
102
{ACAD_REACTORS
330
C
102
}
330
C
100
AcDbDictionary
281
     1
  3
Standard
350
18
  0
DICTIONARY
  5
19
102
{ACAD_REACTORS
330
C
102
}
330
C
100
AcDbDictionary
281
     1
  0
ACDBDICTIONARYWDFLT
  5
E
102
{ACAD_REACTORS
330
C
102
}
330
C
100
AcDbDictionary
281
     1
  3
Normal
350
F
100
AcDbDictionaryWithDefault
340
F
  0
DICTIONARY
  5
47
102
{ACAD_REACTORS
330
C
102
}
330
C
100
AcDbDictionary
281
     1
  3
A0
350
48
  3
A1
350
49
  3
A2
350
4A
  3
A3
350
4B
  3
A4
350
4C
  3
A5
350
4D
  3
A6
350
4E
  3
A7
350
4F
  3
A8
350
50
  3
A9
350
51
  3
B0
350
52
  3
B1
350
53
  3
B2
350
54
  3
B3
350
55
  3
B4
350
56
  3
B5
350
57
  3
B6
350
58
  3
B7
350
59
  3
B8
350
5A
  3
B9
350
5B
  3
C0
350
5C
  3
C1
350
5D
  3
C2
350
5E
  3
C3
350
5F
  3
C4
350
60
  3
C5
350
61
  3
C6
350
62
  3
C7
350
63
  3
C8
350
64
  3
C9
350
65
  3
D0
350
66
  3
D1
350
67
  3
D2
350
68
  0
XRECORD
  5
253
102
{ACAD_REACTORS
330
C
102
}
330
C
100
AcDbXrecord
280
     1
  1
DWGPROPS COOKIE
  2

  3

  4

  6

  7

  8
b.kav
  9

300
=
301
=
302
=
303
=
304
=
305
=
306
=
307
=
308
=
309
=
 40
0.0
 41
2459741.466087488
 42
2459741.466090891
  1

 90
        0
  0
LAYOUT
  5
1E
102
{ACAD_REACTORS
330
1A
102
}
330
1A
100
AcDbPlotSettings
  1

  2
none_device
  4

  6

 40
0.0
 41
0.0
 42
0.0
 43
0.0
 44
0.0
 45
0.0
 46
0.0
 47
0.0
 48
0.0
 49
0.0
140
0.0
141
0.0
142
1.0
143
1.0
 70
   688
 72
     1
 73
     0
 74
     5
  7

 75
    16
147
1.0
148
0.0
149
0.0
100
AcDbLayout
  1
Layout1
 70
     1
 71
     1
 10
0.0
 20
0.0
 11
420.0
 21
297.0
 12
0.0
 22
0.0
 32
0.0
 14
1.0000000000E+20
 24
1.0000000000E+20
 34
1.0000000000E+20
 15
-1.0000000000E+20
 25
-1.0000000000E+20
 35
-1.0000000000E+20
146
0.0
 13
0.0
 23
0.0
 33
0.0
 16
1.0
 26
0.0
 36
0.0
 17
0.0
 27
1.0
 37
0.0
 76
     0
330
1B
  0
LAYOUT
  5
26
102
{ACAD_REACTORS
330
1A
102
}
330
1A
100
AcDbPlotSettings
  1

  2
none_device
  4

  6

 40
0.0
 41
0.0
 42
0.0
 43
0.0
 44
0.0
 45
0.0
 46
0.0
 47
0.0
 48
0.0
 49
0.0
140
0.0
141
0.0
142
1.0
143
1.0
 70
   688
 72
     1
 73
     0
 74
     5
  7

 75
    16
147
1.0
148
0.0
149
0.0
100
AcDbLayout
  1
Layout2
 70
     1
 71
     2
 10
0.0
 20
0.0
 11
0.0
 21
0.0
 12
0.0
 22
0.0
 32
0.0
 14
0.0
 24
0.0
 34
0.0
 15
0.0
 25
0.0
 35
0.0
146
0.0
 13
0.0
 23
0.0
 33
0.0
 16
1.0
 26
0.0
 36
0.0
 17
0.0
 27
1.0
 37
0.0
 76
     0
330
23
  0
LAYOUT
  5
22
102
{ACAD_REACTORS
330
1A
102
}
330
1A
100
AcDbPlotSettings
  1

  2
none_device
  4
Letter_(8.50_x_11.00_Inches)
  6

 40
6.35
 41
6.35
 42
6.35000508
 43
6.35000508
 44
215.9
 45
279.4
 46
0.0
 47
0.0
 48
0.0
 49
0.0
140
0.0
141
0.0
142
1.0
143
1.0
 70
  1712
 72
     1
 73
     0
 74
     0
  7

 75
     0
147
1.0
148
0.0
149
0.0
100
AcDbLayout
  1
Model
 70
     1
 71
     0
 10
0.0
 20
0.0
 11
279.4
 21
215.9
 12
0.0
 22
0.0
 32
0.0
 14
0.0
 24
0.0
 34
0.0
 15
279.4
 25
215.9
 35
0.0
146
0.0
 13
0.0
 23
0.0
 33
0.0
 16
1.0
 26
0.0
 36
0.0
 17
0.0
 27
1.0
 37
0.0
 76
     0
330
1F
331
29
  0
MLINESTYLE
  5
18
102
{ACAD_REACTORS
330
17
102
}
330
17
100
AcDbMlineStyle
  2
Standard
 70
     0
  3

 62
   256
 51
90.0
 52
90.0
 71
     2
 49
0.5
 62
   256
  6
BYLAYER
 49
-0.5
 62
   256
  6
BYLAYER
  0
ACDBPLACEHOLDER
  5
F
102
{ACAD_REACTORS
330
E
102
}
330
E
  0
SCALE
  5
48
102
{ACAD_REACTORS
330
47
102
}
330
47
100
AcDbScale
 70
     0
300
1:1
140
1.0
141
1.0
290
     1
  0
SCALE
  5
49
102
{ACAD_REACTORS
330
47
102
}
330
47
100
AcDbScale
 70
     0
300
1:2
140
1.0
141
2.0
290
     0
  0
SCALE
  5
4A
102
{ACAD_REACTORS
330
47
102
}
330
47
100
AcDbScale
 70
     0
300
1:4
140
1.0
141
4.0
290
     0
  0
SCALE
  5
4B
102
{ACAD_REACTORS
330
47
102
}
330
47
100
AcDbScale
 70
     0
300
1:5
140
1.0
141
5.0
290
     0
  0
SCALE
  5
4C
102
{ACAD_REACTORS
330
47
102
}
330
47
100
AcDbScale
 70
     0
300
1:8
140
1.0
141
8.0
290
     0
  0
SCALE
  5
4D
102
{ACAD_REACTORS
330
47
102
}
330
47
100
AcDbScale
 70
     0
300
1:10
140
1.0
141
10.0
290
     0
  0
SCALE
  5
4E
102
{ACAD_REACTORS
330
47
102
}
330
47
100
AcDbScale
 70
     0
300
1:16
140
1.0
141
16.0
290
     0
  0
SCALE
  5
4F
102
{ACAD_REACTORS
330
47
102
}
330
47
100
AcDbScale
 70
     0
300
1:20
140
1.0
141
20.0
290
     0
  0
SCALE
  5
50
102
{ACAD_REACTORS
330
47
102
}
330
47
100
AcDbScale
 70
     0
300
1:30
140
1.0
141
30.0
290
     0
  0
SCALE
  5
51
102
{ACAD_REACTORS
330
47
102
}
330
47
100
AcDbScale
 70
     0
300
1:40
140
1.0
141
40.0
290
     0
  0
SCALE
  5
52
102
{ACAD_REACTORS
330
47
102
}
330
47
100
AcDbScale
 70
     0
300
1:50
140
1.0
141
50.0
290
     0
  0
SCALE
  5
53
102
{ACAD_REACTORS
330
47
102
}
330
47
100
AcDbScale
 70
     0
300
1:100
140
1.0
141
100.0
290
     0
  0
SCALE
  5
54
102
{ACAD_REACTORS
330
47
102
}
330
47
100
AcDbScale
 70
     0
300
2:1
140
2.0
141
1.0
290
     0
  0
SCALE
  5
55
102
{ACAD_REACTORS
330
47
102
}
330
47
100
AcDbScale
 70
     0
300
4:1
140
4.0
141
1.0
290
     0
  0
SCALE
  5
56
102
{ACAD_REACTORS
330
47
102
}
330
47
100
AcDbScale
 70
     0
300
8:1
140
8.0
141
1.0
290
     0
  0
SCALE
  5
57
102
{ACAD_REACTORS
330
47
102
}
330
47
100
AcDbScale
 70
     0
300
10:1
140
10.0
141
1.0
290
     0
  0
SCALE
  5
58
102
{ACAD_REACTORS
330
47
102
}
330
47
100
AcDbScale
 70
     0
300
100:1
140
100.0
141
1.0
290
     0
  0
SCALE
  5
59
102
{ACAD_REACTORS
330
47
102
}
330
47
100
AcDbScale
 70
     0
300
1/128" = 1'-0"
140
0.0078125
141
12.0
290
     0
  0
SCALE
  5
5A
102
{ACAD_REACTORS
330
47
102
}
330
47
100
AcDbScale
 70
     0
300
1/64" = 1'-0"
140
0.015625
141
12.0
290
     0
  0
SCALE
  5
5B
102
{ACAD_REACTORS
330
47
102
}
330
47
100
AcDbScale
 70
     0
300
1/32" = 1'-0"
140
0.03125
141
12.0
290
     0
  0
SCALE
  5
5C
102
{ACAD_REACTORS
330
47
102
}
330
47
100
AcDbScale
 70
     0
300
1/16" = 1'-0"
140
0.0625
141
12.0
290
     0
  0
SCALE
  5
5D
102
{ACAD_REACTORS
330
47
102
}
330
47
100
AcDbScale
 70
     0
300
3/32" = 1'-0"
140
0.09375
141
12.0
290
     0
  0
SCALE
  5
5E
102
{ACAD_REACTORS
330
47
102
}
330
47
100
AcDbScale
 70
     0
300
1/8" = 1'-0"
140
0.125
141
12.0
290
     0
  0
SCALE
  5
5F
102
{ACAD_REACTORS
330
47
102
}
330
47
100
AcDbScale
 70
     0
300
3/16" = 1'-0"
140
0.1875
141
12.0
290
     0
  0
SCALE
  5
60
102
{ACAD_REACTORS
330
47
102
}
330
47
100
AcDbScale
 70
     0
300
1/4" = 1'-0"
140
0.25
141
12.0
290
     0
  0
SCALE
  5
61
102
{ACAD_REACTORS
330
47
102
}
330
47
100
AcDbScale
 70
     0
300
3/8" = 1'-0"
140
0.375
141
12.0
290
     0
  0
SCALE
  5
62
102
{ACAD_REACTORS
330
47
102
}
330
47
100
AcDbScale
 70
     0
300
1/2" = 1'-0"
140
0.5
141
12.0
290
     0
  0
SCALE
  5
63
102
{ACAD_REACTORS
330
47
102
}
330
47
100
AcDbScale
 70
     0
300
3/4" = 1'-0"
140
0.75
141
12.0
290
     0
  0
SCALE
  5
64
102
{ACAD_REACTORS
330
47
102
}
330
47
100
AcDbScale
 70
     0
300
1" = 1'-0"
140
1.0
141
12.0
290
     0
  0
SCALE
  5
65
102
{ACAD_REACTORS
330
47
102
}
330
47
100
AcDbScale
 70
     0
300
1-1/2" = 1'-0"
140
1.5
141
12.0
290
     0
  0
SCALE
  5
66
102
{ACAD_REACTORS
330
47
102
}
330
47
100
AcDbScale
 70
     0
300
3" = 1'-0"
140
3.0
141
12.0
290
     0
  0
SCALE
  5
67
102
{ACAD_REACTORS
330
47
102
}
330
47
100
AcDbScale
 70
     0
300
6" = 1'-0"
140
6.0
141
12.0
290
     0
  0
SCALE
  5
68
102
{ACAD_REACTORS
330
47
102
}
330
47
100
AcDbScale
 70
     0
300
1'-0" = 1'-0"
140
12.0
141
12.0
290
     0
  0
ENDSEC
  0
EOF
